Home » D » Death Cab For Cutie »

Death Cab For Cutie - The Ghosts Of Beverly Drive Tabs

Artists:  A B C D E F G H I J K L M N O P Q R S T U V W X Y Z # 

The Ghosts Of Beverly Drive Tabs

(ver. 1) Click to play this song!
Death Cab For Cutie
Intro

E|-------------------------------------|
A|-------------------------------------|
D|-------------------------------------|
G|-------------------------------------|
B|0-0-0--0-0-0--0-0--0-0-0--0-0--------|
E|------------------------------0-1-0-1|

Verse x2
E|-----------------| x3
A|-----------------|
D|-----------------|
G|-----------------|
B|0-0-0--0-0-0--0-0|
E|-----------------|

E|--------------------|
A|--------------------|
D|--------------------|
G|--------------------|
B|0-0-0--0-0-0--------|
E|-------------0-1-0-1|

Solo
E|--------------------|
A|5-5-5-5-5-5--3-2----|
D|--------------------|
G|--------------------|
B|--------------------|
E|--------------------|

E|--------------------|
A|5-5-5-5-5-5--7-2----|
D|--------------------|
G|--------------------|
B|--------------------|
E|--------------------|

E|---------------------------------------------|
A|5-5-5-5-5--5-3-2-2---------------------------|
D|-------------------2-2-2-2-2--2--2--2--4-4-4-|
G|---------------------------------------------|
B|---------------------------------------------|
E|---------------------------------------------|

E|--------------------|
A|5-5-5-5-7-3-5-2-----|
D|--------------------|
G|--------------------|
B|--------------------|
E|--------------------|

E|--------------------|
A|5-5-5-5-5--7-2------|
D|--------------------|
G|--------------------|
B|--------------------|
E|--------------------|

E|--------------------|
A|5-5-5-5-7-3-5-2--2--|
D|--------------------|
G|--------------------|
B|--------------------|
E|--------------------|

E|---------------------------|
A|---------------------------|
D|-2-2-2-2-2--2--2--2--4-4-4-|
G|---------------------------|
B|---------------------------|
E|---------------------------|

Verse x2
E|-----------------| x3
A|-----------------|
D|-----------------|
G|-----------------|
B|0-0-0--0-0-0--0-0|
E|-----------------|

E|--------------------|
A|--------------------|
D|--------------------|
G|--------------------|
B|0-0-0--0-0-0--------|
E|-------------0-1-0-1|

Solo
E|--------------------|
A|5-5-5-5-5-5--3-2----|
D|--------------------|
G|--------------------|
B|--------------------|
E|--------------------|

E|--------------------|
A|5-5-5-5-5-5--7-2----|
D|--------------------|
G|--------------------|
B|--------------------|
E|--------------------|

E|---------------------------------------------|
A|5-5-5-5-5--5-3-2-2---------------------------|
D|-------------------2-2-2-2-2--2--2--2--4-4-4-|
G|---------------------------------------------|
B|---------------------------------------------|
E|---------------------------------------------|

E|--------------------|
A|5-5-5-5-7-3-5-2-----|
D|--------------------|
G|--------------------|
B|--------------------|
E|--------------------|

E|--------------------|
A|5-5-5-5-5--7-10-----|
D|--------------------|
G|--------------------|
B|--------------------|
E|--------------------|

E|--------------------|
A|5-5-5-5-7-3-5-2--2--|
D|--------------------|
G|--------------------|
B|--------------------|
E|--------------------|

E|----------------------------|
A|----------------------------|
D|-2-2-2-2-2--2--2--2--4-4-4--|
G|----------------------------|
B|----------------------------|
E|----------------------------|

Drum solo

Chorus x4(play solo, it sounds good)

Very last time ends like this:

E|-0-0-3-0-3-0-3-0----|
A|--------------------|
D|--------------------|
G|--------------------|
B|--------------------|
E|--------------------|
            
Submit corrections

↑ Back to top | Tablatures and chords for acoustic guitar and electric guitar, ukulele, drums are parodies/interpretations of the original songs. You may use it for private study, scholarship, research or language learning purposes only