» » »

David Gilmour - Blue Tabs

Artists:  A B C D E F G H I J K L M N O P Q R S T U V W X Y Z # 

Blue Tabs

(ver. 1) Click to play this song!
David Gilmour
 Rating:
4.3/5 (6 votes)

 Blue lessons Tabs too difficult? Try these video lessons and learn fast
 
                -------------------------------------------------------------------------
                             THE BLUE - DAVID GILMOUR
-------------------------------------------------------------------------

  Solo

e|--------------------------------16-19-21b(23)-19\\\\7----|
B|----------------7-7/9////21------------------------------|
G|-------------9-------------------------------------------|
D|--------7-9----------------------------------------------|
A|---7/9---------------------------------------------------|
E|---------------------------------------------------------|

e|------------------------------19////24--19~-----------------19-21-19~-|
B|--14-------14-17p16-16////22----------------19/21-21-21-21~-----------|
G|--16b(18)-------------------------------------------------------------|
D|----------------------------------------------------------------------|
A|----------------------------------------------------------------------|
E|----------------------------------------------------------------------|

e|----------------------------------------------------------------------|
B|--16b(17)16\\\\4------------------------------------------------------|
G|------------------------8---8--11-11-11--9-8h9p8----8---------------9-|
D|----------------------9---9----------------------11---11-9-9----------|
A|------------------7/9----------------------------------------9-9/11---|
E|----------------------------------------------------------------------|

e|-------------------14-16-16b17-17-17-16-14/////19---|
B|----------------------------------------------------|
G|--13b(14)-11~////-----------------------------------|
D|----------------------------------------------------|
A|----------------------------------------------------|
E|----------------------------------------------------|

e|------------------14--------19~---10------13p12-----------------------|
B|--------12--12/14-----19/21-------13b(15)-------13-------13-----------|
G|--11/13--------------------------------------------12-12----12b(14)---|
D|----------------------------------------------------------------------|
A|----------------------------------------------------------------------|
E|----------------------------------------------------------------------|

e|----------------------------------------------|
B|----------------------------------------------|
G|--------10-12-12b(14)p10-12/14--12b(14)p10----|
D|--10/12---------------------------------------|
A|----------------------------------------------|
E|----------------------------------------------|

e|--10------10-19~19~--14b15b14-14-19-14b15b14-13-17-12b13b12-12--11b12b11-|
B|--13b(15)----------------------------------------------------------------|
G|-------------------------------------------------------------------------|
D|-------------------------------------------------------------------------|
A|-------------------------------------------------------------------------|
E|-------------------------------------------------------------------------|

e|--11-16----9-14----7-12----------------------------|
B|--------14------12------9--9-12-14b(16)-12////24---|
G|---------------------------------------------------|
D|---------------------------------------------------|
A|---------------------------------------------------|
E|---------------------------------------------------|

e|--19-19-19~19-21b(23)-19~\\\\7---9-------9-11-11/12-12-12p11////---|
B|---------------------------------12b(14)---------------------------|
G|-------------------------------------------------------------------|
D|-------------------------------------------------------------------|
A|-------------------------------------------------------------------|
E|-------------------------------------------------------------------|

e|--31-31-31-31-31b(33)-31-31-31-31b(32)-31\\\\---|
B|------------------------------------------------|
G|------------------------------------------------|
D|------------------------------------------------|
A|------------------------------------------------|
E|------------------------------------------------|

e|--16b17b16-14--14-16-17-17~17-17/19-16////--11b(12)-11\\\\---|
B|-------------------------------------------------------------|
G|-------------------------------------------------------------|
D|-------------------------------------------------------------|
A|-------------------------------------------------------------|
E|-------------------------------------------------------------|

e|----------------------------------------------7///19-----|
B|--------------------------------------------9------------|
G|------4-6-6/8p6-------------------9----9----9------------|
D|--4/6-----------9-----9-----------9-11-9-11-9------------|
A|------------------7/9---11-9/-------11---11--------------|
E|-----------------------------0---------------------------|

                  i think that is the original version....
                  

| /  slide up
| \  slide down
| h  hammer-on
| p  pull-off
| ~  vibrato
| +  harmonic
| x  Mute note
===========================================================================
            
Submit corrections


        Blue lessons Hard to play? Try these video lessons and learn fast Blue lessons
        
↑ Back to top | Tablatures and chords for acoustic guitar and electric guitar, ukulele, drums are parodies/interpretations of the original songs. You may use it for private study, scholarship, research or language learning purposes only