» » »

David Gilmour - Rattle That Lock Bass

Artists:  A B C D E F G H I J K L M N O P Q R S T U V W X Y Z # 

Rattle That Lock Bass

(ver. 1) Click to play this song!
David Gilmour
 Rating:
3.9/5 (22 votes)

 Rattle That Lock  lessons Tabs too difficult? Try these video lessons and learn fast
 
                Intro 0:07

G|--------------------------|
D|-----1---/5--3--1---------|
A|-3-3---3----------3~----1-|
E|----------------------3---|

G|----------------------------|
D|-----1---/5--3--1-----------|
A|-3-3---3----------3~------1-|
E|----------------------0-3---|

G|--------------------------|
D|-----1---/5--3--1---------|
A|-3-3---3----------3~----1-|
E|----------------------3---|

G|--------------------------|
D|-----1---/5--3--1---------|
A|-3-3---3----------3~----1-|
E|----------------------3---|

Verse

G|--------------------------|
D|-----1---/5--3--1---------|
A|-3-3---3----------3~----1-|
E|----------------------3---|

G|----------------------------|
D|-----1---/5--3--1-----------|
A|-3-3---3----------3~------1-|
E|----------------------0-3---|

G|--------------------------|
D|-----1---/5--3--1---------|
A|-3-3---3----------3~----1-|
E|----------------------3---|

G|----------------------------|
D|-----1---/5--3--1-----------|
A|-3-3---3----------3~------1-|
E|----------------------0-3---|

Chorus

G|-----------------------------------------------|
D|------6--8--6-5-6---6--------------------------|
A|----6--------------6---------------------------|
E|-4---------------------1--1-1--3-4-3-1-1---x-3-|

G|------------------------------------------------|
D|---------6-8-6-----6---------------------1--0---|
A|-------------------------------------1--------1-|
E|-4--4-4---------4----3--1--1-1--1--3---3--3-----|

Verse

G|----------------------------|
D|-----1---/5--3--1-----------|
A|-3-3---3----------3~------1-|
E|----------------------0-3---|

G|--------------------------|
D|-----1---/5--3--1---------|
A|-3-3---3----------3~----1-|
E|----------------------3---|

G|--------------------------|
D|-----1---/5--3--1---------|
A|-3-3---3----------3~----1-|
E|----------------------3---|

G|----------------------------|
D|-----1---/5--3--1-----------|
A|-3-3---3----------3~------1-|
E|----------------------0-3---|

Chorus

G|-----------------------------------------------|
D|------6--8--6-5-6---6--------------------------|
A|----6--------------6---------------------------|
E|-4---------------------1--1-1--3-4-3-1-1---x-3-|

G|------------------------------------------------|
D|---------6-8-6-----6---------------------1--0---|
A|-------------------------------------1--------1-|
E|-4--4-4---------4----3--1--1-1--1--3---3--3-----|

Solo

G|--------------------------|
D|-----1---/5--3--1---------|
A|-3-3---3----------3~--1-3-|
E|--------------------------|

G|--------------------------|
D|-----1---/5--3--1---------|
A|-3-3---3----------3~----1-|
E|----------------------3---|

G|--------------------------|
D|-----1---/5--3--1---------|
A|-3-3---3----------3~----1-|
E|---------------------03---|

G|----------------------------|
D|-----1---/5--3--1-----------|
A|-3-3---3----------3~------1-|
E|----------------------0-3---|

G|-----------------------------------------------|
D|------6--8--6-5-6---6--------------------------|
A|----6--------------6---------------------------|
E|-4---------------------1--1-1--3-4-3-1-1---x-3-|

G|--------------------------------------------------|
D|---------6-8-6-----6---------------------1--0-----|
A|-------------------------------------1--------1-3-|
E|-4--4-4---------4----3--1--1-1--1--3---3--3-------|

Break (Bass start at 2:28)

G|-------------------------------------------------------------------------------|
D|-----------------------------------------------------------------------1---0---|
A|-------------------------------------------------------------------1---------1-|
E|------------------------------------------------------1--1-1--1--3---3---3-----|


Verse

G|--------------------------|
D|-----1---/5--3--1---------|
A|-3-3---3----------3~----1-|
E|----------------------3---|

G|----------------------------|
D|-----1---/5--3--1-----------|
A|-3-3---3----------3~------1-|
E|----------------------0-3---|

G|--------------------------|
D|-----1---/5--3--1---------|
A|-3-3---3----------3~----1-|
E|----------------------3---|

G|----------------------------|
D|-----1---/5--3--1-----------|
A|-3-3---3----------3~------1-|
E|----------------------0-3---|

Chorus

G|-----------------------------------------------|
D|------6--8--6-5-6---6--------------------------|
A|----6--------------6---------------------------|
E|-4---------------------1--1-1--3-4-3-1-1---x-3-|

G|------------------------------------------------|
D|---------6-8-6-----6---------------------1--0---|
A|-------------------------------------1--------1-|
E|-4--4-4---------4----3--1--1-1--1--3---3--3-----|

Solo

G|--------------------------|
D|-----1---/5--3--1---------|
A|-3-3---3----------3~----1-|
E|----------------------3---|

G|----------------------------|
D|-----1---/5--3--1-----------|
A|-3-3---3----------3~------1-|
E|----------------------0-3---|

G|--------------------------|
D|-----1---/5--3--1---------|
A|-3-3---3----------3~----1-|
E|----------------------3---|

G|----------------------------|
D|-----1---/5--3--1-----------|
A|-3-3---3----------3~------1-|
E|----------------------0-3---|

G|-----------------------------------------------|
D|------6--8--6-5-6---6--------------------------|
A|----6--------------6---------------------------|
E|-4---------------------1--1-1--3-4-3-1-1---x-3-|

G|------------------------------------------------|
D|---------6-8-6-----6---------------------1--0---|
A|-------------------------------------1--------1-|
E|-4--4-4---------4----3--1--1-1--1--3---3--3-----|

G|--------------------------|
D|-----1---/5--3--1---------|
A|-3-3---3----------3~----1-|
E|----------------------3---|

G|----------------------------|
D|-----1---/5--3--1-----------|
A|-3-3---3----------3~------1-|
E|----------------------0-3---|

G|--------------------------|
D|-----1---/5--3--1---------|
A|-3-3---3----------3~----1-|
E|----------------------3---|

G|----------------------------|
D|-----1---/5--3--1-----------|
A|-3-3---3----------3~------1-|
E|----------------------0-3---|

G|-----------------------------------------------|fade out
D|------6--8--6-5-6---6--------------------------|
A|----6--------------6---------------------------|
E|-4---------------------1--1-1--3-4-3-1-1---x-3-|
            
Submit corrections


        Rattle That Lock  lessons Hard to play? Try these video lessons and learn fast Rattle That Lock  lessons
        
↑ Back to top | Tablatures and chords for acoustic guitar and electric guitar, ukulele, drums are parodies/interpretations of the original songs. You may use it for private study, scholarship, research or language learning purposes only