» » »

David Gilmour - Blue Tabs

Artists:  A B C D E F G H I J K L M N O P Q R S T U V W X Y Z # 

Blue Tabs

(ver. 2) Click to play this song!
David Gilmour
 Rating:
4/5 (4 votes)

 Blue lessons Tabs too difficult? Try these video lessons and learn fast
 
                Hey guys, the other guys who submitted the chords for this stuff, where off, so i took 
liberty of submitting a correct tab.

ok, so first off, the intro chord may be a B, but its not a normal B, it is played in 
next key(as shown), it may be hard to position this chord but if you really stretch you 
get it.You may also position it without the low e string if thats easier.

   _B_  _A_  _C9_  _Bb_  _F_  _G_  _Bm_  _Am_  _A9_
e|--7----5----0-----1-----1----3----2-----0-----0-----|
B|--7----5----3-----3-----1----3----3-----1-----3-----|
G|--4----2----0-----3-----2----4----4-----2-----2-----|
D|--4----2----2-----3-----3----5----4-----2-----2-----|
A|--6----4----3-----1-----3----5----2-----0-----0-----|
E|--7----5----x-----x-----1----3----x-----x-----x-----|

So you play a B for the intro if you didnt know..

 B
Shameless sea

Aimlessly so blue

 A
Midnight, moon shines for you

 B
Still, marooned

Silence drifting through

 A                     B
Nowhere to choose... just blue

 C9
Waves roll

 Bb         B
Lift us In Blue

 C9
Drift us

 Bb    F
Sleep right through

               G   Bm   A9  Am
And color us blue

 B
Wait for me

Shamelss you, the sea

 A               B
Soon, the Blue, so soon..


 Solo

e|---------------------------16-19-21--21b23r21-19\\\--|
B|-------------7-7/9///21~-----------------------------|
G|-----------9-----------------------------------------|
D|-----7-8-9-------------------------------------------|
A|-7h9-------------------------------------------------|
E|-----------------------------------------------------|

e|-----11b12r11/////21b24r21-\-19-|
B|-/13----------------------------|
G|--------------------------------|
D|--------------------------------|
A|--------------------------------|
E|--------------------------------|

yea i stopped there cause im too lazy to finish, and its very long, and im tired, the 
are probably 90% correct, please vote fairly good, maybe a 3 or 4. thank you
            
Submit corrections


        Blue lessons Hard to play? Try these video lessons and learn fast Blue lessons
        
↑ Back to top | Tablatures and chords for acoustic guitar and electric guitar, ukulele, drums are parodies/interpretations of the original songs. You may use it for private study, scholarship, research or language learning purposes only