» » »

David Gilmour - And Then Tabs

Artists:  A B C D E F G H I J K L M N O P Q R S T U V W X Y Z # 

And Then Tabs

(ver. 1) Click to play this song!
David Gilmour
 Rating:
3.5/5 (2 votes)

 And Then  lessons Tabs too difficult? Try these video lessons and learn fast
 
                Electric guitar: 00:18-3:25
|---------------------------------------------------------------|
|-12~-12s10s12-s15~~----5~~-s3~~----15s17-(17)-s15------10s12~~-|
|---------------------------------------------------------------|
|---------------------------------------------------------------|
|---------------------------------------------------------------|
|---------------------------------------------------------------|
 
|---------------------------------------------------|
|---------------------------------------------------|
|---------------------------------------------------|
|-----5-7s9~~-----5-7s9s7-5-5s7---------------------|
|-5s7---------5s7---------------7p5-5~--------------|
|---------------------------------------------------|

|----------------------------------------------------|
|-----5-7-8~--5b7r3-5---------3-3s5s3-------3--------|
|-2s4-----------------4~~-2s4---------2-2s4---2s4~~--|
|----------------------------------------------------|
|----------------------------------------------------|
|----------------------------------------------------|

|---12-14-14b15-14-12-----------------12-14-14b15r14-12------------| 
|--x------------------15--10b12~~--12-------------------15~~~~~~---|
|-x----------------------------------------------------------------|
|------------------------------------------------------------------|
|------------------------------------------------------------------|
|------------------------------------------------------------------|

|----12-14-14b15r14-15-17-17b19-(19)~~~-------15b17-15-p12---------| 
|-12----------------------------------------15-------------15-15---|
|------------------------------------------------------------------|
|------------------------------------------------------------------|
|------------------------------------------------------------------|
|------------------------------------------------------------------|

|--12---------------------|
|-----15p12---------------|
|-------------14p12-------|
|-------------------14~~--|
|-------------------------|
|-------------------------|

|--------------------------------------|
|--------------------------------------|
|---------7----------------------------|
|-7p5-7s9---9s7---5-5-5s7s5------------|
|--------------------------7-7--5-5-5--|
|--------------------------------------|

|--------------------------------------|
|--------------------------------------|
|-----7-7s9b10r9-----------------------|
|-5s7------------7-7s9-7—5-5-7b8-7-5---|
|--------------------------------------|
|--------------------------------------|

|------------------------------------15-17-17-17b19~~--|
|---12-12b13r12~---12-13-13b15----15b------------------|
|-14-------------14-------------12---------------------|
|------------------------------------------------------|
|------------------------------------------------------|
|------------------------------------------------------|

|-17h19b21r19-----------17brbr----------------------------------------------|
|-------------17-17--15--------15~-12-15-15b17-15s10-8-10brbrp8-8brbr-------|
|--------------------------------------------------------------------9~~s16-|
|---------------------------------------------------------------------------|
|---------------------------------------------------------------------------|
|---------------------------------------------------------------------------|

|-12-12---------------------------------------------------------------|
|-------15b17~b17~-12-8-10b12~-----5s8-7-5----------------------------|
|------------------------------------------5s7-5s4-2-2b3r2-2s4-2p0-2~-|
|---------------------------------------------------------------------|
|---------------------------------------------------------------------|
|---------------------------------------------------------------------|

|----------------------------------------------------------------------|
|-------------------------8-10-12b14r10-12~s5-5------3-3s5-------------|
|-----7-7s12-s5~-2s5-5~--------------------------2s4-------4-4—0-2s4~~-|
|-7s9------------------------------------------------------------------|
|----------------------------------------------------------------------|
|----------------------------------------------------------------------|

|-----------------------------------------|
|-5s8-10-12-12s14-12-10----12b14-12-10s3--|
|-----------------------9-----------------|
|-----------------------------------------|
|-----------------------------------------|
|-----------------------------------------|

|-----------------------10-10--------------------------|
|-----3-5-8-10-10b12(hold-bend)-----12-15-15b17~~~~~~--|
|-2s4--------------------------------------------------|
|------------------------------------------------------|
|------------------------------------------------------|
|------------------------------------------------------|

Nylon string/classical acoustic outro:
3:27-4:12
|-----3-3------------------3-3s5-3-----------|
|-----------5-5---3----3s5---------5-3-5-----|
|-2s4-----2-----4------------------------4-4-|
|--------------------------------------------|
|--------------------------------------------|
|--------------------------------------------|

|----2-3--5-5s7-7--10-10p7-7-------7-10-------------|
|-3s5-------------------------8-10------8-8---------|
|-------------------------------------------9s7-7~--|
|---------------------------------------------------|
|---------------------------------------------------|
|---------------------------------------------------|

|---------------------------------------------10-10-|
|-------7-8-7--------------7-8-7------8-10s12-------|
|-5s7-9-------9-7----5s7-9-------9-7~~--------------|
|-----------------9---------------------------------|
|---------------------------------------------------|
|---------------------------------------------------|

|-------10-12-12------------10-10-------------------------------------------|
|-10s12----------12-12--8-8-------10-10---7-8-8s10-8-7----------------------|
|-----------------------------------------------------9-7-------------------|
|---------------------------------------------------------7s9-7-5-----------|
|-----------------------------------------------------------------7p5---5s7-|
|--------------------------------------------------------------------7-5----|             
Submit corrections


        And Then  lessons Hard to play? Try these video lessons and learn fast And Then  lessons
        
↑ Back to top | Tablatures and chords for acoustic guitar and electric guitar, ukulele, drums are parodies/interpretations of the original songs. You may use it for private study, scholarship, research or language learning purposes only