» » »

David Gilmour - 5 Am Tabs

Artists:  A B C D E F G H I J K L M N O P Q R S T U V W X Y Z # 

5 Am Tabs

(ver. 1) Click to play this song!
David Gilmour
 Rating:
2.8/5 (6 votes)

 5 Am  lessons Tabs too difficult? Try these video lessons and learn fast
 
                Em
|-------------------------------------------------------| 
|-15b~~-15p12—15b17-(17)-(17)-(17b18)r15~~--------3-5~~-|
|---------------------------------------------2s4-------|
|-------------------------------------------------------|
|-------------------------------------------------------|
|-------------------------------------------------------|

|---------------------------------------------------| 
|-----3-3~-5---------------------------------3-5~~~-|
|-2s4--------4p2-0-2s4-----2b3r0-2-------2s4--------|
|----------------------5~----------2~---------------|
|---------------------------------------------------|
|---------------------------------------------------|

|----15~~--14~~--------------------------------| 
|---x-----x-----pb12r10b12---------------------|
|--x-----x---------------------2b4r2r0-2r0-----|
|-x-----x----------------------------------2~--|
|----------------------------------------------|
|----------------------------------------------|

|-12-14-14b15-14-12-----------------12-14-14b15r14-12-------------| 
|-------------------15--10b12~~--12-------------------15~~~~~~~---|
|-----------------------------------------------------------------|
|-----------------------------------------------------------------|
|-----------------------------------------------------------------|
|-----------------------------------------------------------------|
                                                                       
|----12-14-14b15r14-15-17-17b19~~~-----------------------------------| 
|-12----------------------------------10-8b10r8p7--------------------|
|---------------------------------9-9-------------9-9—7s9~~-7-5~-2~~-|
|--------------------------------------------------------------------|
|--------------------------------------------------------------------|
|--------------------------------------------------------------------|


|-----------------------------------------10-10~------| 
|-----3---3-5-----------3------8-10-10b12(hold-bend)--|
|-2s4---4-----4p2p0-2s4----7s9------------------------|
|-----------------------------------------------------|
|-----------------------------------------------------|
|-----------------------------------------------------|

|-------------------------------------------------------------------| 
|-12-15-15b17~~--15b17-15b18-15~--12h15-----------------------------|
|---------------------------------------12h14-11h12-----------------|
|---------------------------------------------------14h16-12h14-11~-|
|-------------------------------------------------------------------|
|-------------------------------------------------------------------|

|---------------------------------------------------------------| 
|---------8~------8-8---10-10---8-8---10-10---8-10-12-15b17r15~-|
|-----7-9-----7s9-----9-------9-----9-------9-------------------|
|-7s9-----------------------------------------------------------|
|---------------------------------------------------------------|
|---------------------------------------------------------------|

|-14b15-(15)-r14--15-17-19-19b20-19-17----19b20-19------------| 
|--------------------------------------17----------20s17-12~--|
|-------------------------------------------------------------|
|-------------------------------------------------------------|
|-------------------------------------------------------------|
|-------------------------------------------------------------|

|----------------------10-10-----------------------7-7-7--7-7h10--| 
|-8b10r8—10b12r8-10b12-(hold)-12r8-----------------8-8-8--8-8-----|
|----------------------------------9--7—4p2p0------7-7-7--7-------|
|---------------------------------------------2~~-----------------|
|-----------------------------------------------------------------|
|-----------------------------------------------------------------|

|-7-7-7--7--------------------------------------------------| 
|-8-8-8--8-------8-10-10b-10-8------------------------------|
|-7-7-7--7---7s9---------------7s9-7------------------------|
|------------------------------------9-7s9-7-5--------------|
|----------------------------------------------7p5---5------|
|--------------------------------------------------7---7~---|
            
Submit corrections


        5 Am  lessons Hard to play? Try these video lessons and learn fast 5 Am  lessons
        
↑ Back to top | Tablatures and chords for acoustic guitar and electric guitar, ukulele, drums are parodies/interpretations of the original songs. You may use it for private study, scholarship, research or language learning purposes only