» » »

David Gilmour - 5 Am Tabs

Artists:  A B C D E F G H I J K L M N O P Q R S T U V W X Y Z # 

5 Am Tabs

(ver. 2) Click to play this song!
David Gilmour
 Rating:
4.2/5 (10 votes)

 5 Am  lessons Tabs too difficult? Try these video lessons and learn fast
 
                e|---------------------------------------------------------------------------|
B|--15b17p12----15b17--(17)-(17)--17b19---15---------------------------------|
G|---------------------------------------------------------------7-9~~-------|
D|----------------------------------------------------------7/9--------7/9---|
A|---------------------------------------------------------------------------|
E|---------------------------------------------------------------------------|

e|------------------------------------------------15--14---------------------|
B|-----------------------------------------------x---x-------b12r10b12-------|
G|--7-7-9-----------2bp0-2------------7-9~~----x---x-------------------------|
D|------------9\7-5---------------7/9--------x---x---------------------------|
A|---------------------------------------------------------------------------|
E|---------------------------------------------------------------------------|

e|--------------------12-14-14b15r14-12---------------10-12-14-14b15r14-12---|
B|--------------------------------------15-10b12~~---------------------------|
G|--2bp0-2p0-----------------------------------------------------------------|
D|-------------0-------------------------------------------------------------|
A|---------------------------------------------------------------------------|
E|---------------------------------------------------------------------------|

e|-------10-12-14-14b15r14-15-17-17b19~~~------------------------------------|
B|--15~~----------------------------------------10-7b8-----------------------|
G|------------------------------------------9-9-------------9-7-7--7---------|
D|----------------------------------------------------------------------9\7--|
A|---------------------------------------------------------------------------|
E|---------------------------------------------------------------------------|

e|---------------------------------------------------------------------------|
B|-----------------------------------------------8-10-10b12------------------|
G|-----------7---7-9---------------7---7/9-----------------------------------|
D|--5----7/9---9----------7\5--7/9-------------------------------------------|
A|----7----------------------------------------------------------------------|
E|---------------------------------------------------------------------------|

          (During bend)
e|--10-10------------------10-12---12-12b14-10-------------------------------|
B|-----------------------12-------------------12h15-10h12--------------------|
G|---------------------------------------------------------12h14---11h12-----|
D|---------------------------------------------------------------------------|
A|---------------------------------------------------------------------------|
E|---------------------------------------------------------------------------|

e|-------------------------------------------------------------------14h15---|
B|--------------------8-----8-8---10-10-8-8---10-10-8-10-12-15b17-15---------|
G|--9h11-7-------7-9----7/9-----9-----------9--------------------------------|
D|-----------7/9-------------------------------------------------------------|
A|---------------------------------------------------------------------------|
E|---------------------------------------------------------------------------|

e|--15-14-15-17-19-19b21-19-15----19b21r19-15--------------------------------|
B|-----------------------------15-------------12---8b10r8--10b12p8-10b12-----|
G|---------------------------------------------------------------------------|
D|---------------------------------------------------------------------------|
A|---------------------------------------------------------------------------|
E|---------------------------------------------------------------------------|

          (During bend)
e|--10-10-----------------------------------------------7-7------------------|
B|----------------------r10p8-----------------8-8-8--8--8-8-8-8-8-8--8--8----|
G|----------------------------9-7-------------7-7-7--7--7-7-7-7-7-7--7--7----|
D|--------------------------------9\7p5--------------------------------------|
A|--------------------------------------7------------------------------------|
E|---------------------------------------------------------------------------|

e|---------------------------------------------------------------------------|
B|-------8-10-10b12r10-8-----------------------------------------------------|
G|--7/9------------------9-7-------------------------------------------------|
D|----------------------------9\7--5-7b9p5--7-5\-----------------------------|
A|---------------------------------------------------------------------------|
E|---------------------------------------------------------------------------|            
Submit corrections


        5 Am  lessons Hard to play? Try these video lessons and learn fast 5 Am  lessons
        
↑ Back to top | Tablatures and chords for acoustic guitar and electric guitar, ukulele, drums are parodies/interpretations of the original songs. You may use it for private study, scholarship, research or language learning purposes only