» » »

Dave Matthews Band - Crush Tabs

Artists:  A B C D E F G H I J K L M N O P Q R S T U V W X Y Z # 

Crush Tabs

(ver. 1) Click to play this song!
Dave Matthews Band
 Rating:
4/5 (4 votes)

 Crush lessons Tabs too difficult? Try these video lessons and learn fast
 
                Crush! As dave said "its about the fun part of love,its about the worship of women"...this has to be one of the funnest songs to play...heck if you can keep up with tim reynolds solo then your awesome.
Drop D Tuning dADGBE
Verses 
---------------------------------------------0--------------------------------
----3-----3-----3--3--2----------------------3--------------------------------
----4-----4-----0--2--2--4-5--4-5--5---------1--------------------------------
----4-----0-----4--------5-5--5-5--5---------0--------------------------------
-2--2-----2-----2------------------3---------2--------------------------------
-------5--5--2--2--2--2--3-3--5-5------------2--------------------------------
                                                                              
Bridges "Lovely lady..."
----------0-------------------------------------------------------------------
----------3-------------------------------------------------------------------
-------5--1--------5----------------------------------------------------------
-7--9--5--0--7--9--5----------------------------------------------------------
-5--7--3--2--5--7--3----------------------------------------------------------
-5--7-----2--5--7-------------------------------------------------------------
                                                                              
Prechorus
----3-----3-----3--3--2-------------------------------------------------------
----4-----0-----0--2--2-------------------------------------------------------
----4-----4-----4-------------------------------------------------------------
-2--2-----2-----2-------------------------------------------------------------
-------5--5--2--2--2--2-------------------------------------------------------
                                                                              
Chorus
---------13---------------------13--3-----------------------------------------
-12--12--12--12---------12--12--12--1-----------------------------------------
-10--12--10---9---------10--12--10--0-----------------------------------------
--8--10--10--10----------8--10--10--2-----------------------------------------
------------------------------------2-----------------------------------------
                                                                              
Scat Breakdown Jam
-5-5--3-3--2-2--5-5--3-3--2-2--5-5--3-3--12-12-xxxx-10-10-xxxx-9-9-xxxx-------
-5-5--3-3--2-2--5-5--3-3--2-2--5-5--3-3--12-12-xxxx-10-10-xxxx-9-9-xxxx-------
-5-5--3-3--2-2--5-5--3-3--2-2--5-5--3-3--12-12-xxxx-10-10-xxxx-9-9-xxxx-------
                                                                              

-8-8-xxxx-5-5-xxxx-3-3-xxxx-2-2-----------------------------------------------
-8-8-xxxx-5-5-xxxx-3-3-xxxx-2-2-----------------------------------------------
-8-8-xxxx-5-5-xxxx-3-3-xxxx-2-2-----------------------------------------------
                                                                              
Outro
-0--2-2--0--2-2--7--9-9--7--9-9--0--2-2--0--2-2--7--9-9-----------------------
-0--2-2--0--2-2--7--9-9--7--9-9--0--2-2--0--2-2--7--9-9-----------------------
-0--2-2--0--2-2--7--9-9--7--9-9--0--2-2--0--2-2--7--9-9-----------------------
            
Submit corrections


        Crush lessons Hard to play? Try these video lessons and learn fast Crush lessons
        
↑ Back to top | Tablatures and chords for acoustic guitar and electric guitar, ukulele, drums are parodies/interpretations of the original songs. You may use it for private study, scholarship, research or language learning purposes only