» » »

Dave Matthews Band - Lie In Our Graves Tabs

Artists:  A B C D E F G H I J K L M N O P Q R S T U V W X Y Z # 

Lie In Our Graves Tabs

(ver. 1) Click to play this song!
Dave Matthews Band
 Rating:
4/5 (4 votes)

 Lie In Our Graves lessons Tabs too difficult? Try these video lessons and learn fast
 
                PROPS GO TO: Brian

e:-----2-2-x-----------x-x-x-------------------------------|
B:--3--3-3-x-----------x-x-x-------------------------------|
G:--2--2-2-x-----------x-x-x------------2---------0--0--0--|
D:--0--0-0-x-----------x-x-x---0--2--4--0--4------2--2--0--|
A:-------------4---2--------------------------2------------|
E:--------------------------------------------3---3--3--3--|
At "Ok ok ok..." right before the full band comes in, substitute this measure:

e:------2-2-x-----------x-x-x--x-x--------------------------------|
B:---3--3-3-x-----------x-x-x--x-x---0---0--0--0---2--2-2-2-2--2--|
G:---2--2-2-x-----------x-x-x--x-x---0---0--0--0---2--2-2-2-2--2--|
D:---0--0-0-x-----------x-x-x--x-x---0---0--0--0---2--2-2-2-2--2--|
A:--------------4---2---------(2-2)--2---2--2--2---0--0-0-0-0--0--|
E:----------------------------(3-3)--3---3--3--3------------------|

I have indicated optional slides above the staff. I don't think Dave plays them, but they sound cool if added.

The first slide would be 2 to 4, and the second slide would be 4 to 2 (both on the D-string)

             (sl.)    (sl.)
e:--2--2-x------------------0--0-x------------------|
B:--3--3-x------------------1--1-x------------------|
G:--2--2-x---------2--------2--2-x--0h2p0-----------|
D:--0--0-x---0--4-----4--0--2--2-x---------4--2--4--|
A:--------------------------0--0-x------------------|
E:--------------------------------------------------|

    I'm blown away...

e:---------------------------------------------------------------------------|
B:----------------------1--1-1--1--1-1--3--3-3--3--3-3-----------------------|
G:-7--7-7-x--5--7--x-x--2--2-2--2--2-2--4--4-4--4--4-4--5--5-5-\-4-4--4--4-4-|
D:-7--7-7-x--5--7--x-x--2--2-2--2--2-2--4--4-4--4--4-4--5--5-5-\-4-4--4--4-4-|
A:-5--5-5-x--3--5--x-x--0--0-0--0--0-0--2--2-2--2--2-2--3--3-3-\-2-2--2--2-2-|
E:---------------------------------------------------------------------------|

e:----------------------------|
B:----------------------------|
G:--11----9----7------4----6--|
D:----------------------------|
A:----------------------------|
E:--10----9----7------3----5--|


e:----------------------------|
B:----------------------------|
G:--12----7----6------2----4--|
D:----------------------------|
A:----------------------------|
E:--12----7----5------2----3--|

Another "Ok ok ok..." part, but it slows down here.

e:------2-2-x-----------x-x-x--x-x-----------------------|
B:---3--3-3-x-----------x-x-x--x-x---0----------2--------|
G:---2--2-2-x-----------x-x-x--x-x---0----------2--------|
D:---0--0-0-x-----------x-x-x--x-x---0----------2--------|
A:--------------4---2---------(2-2)--2----------0--------|
E:----------------------------(3-3)--3-------------------|
            
Submit corrections


        Lie In Our Graves lessons Hard to play? Try these video lessons and learn fast Lie In Our Graves lessons
        
↑ Back to top | Tablatures and chords for acoustic guitar and electric guitar, ukulele, drums are parodies/interpretations of the original songs. You may use it for private study, scholarship, research or language learning purposes only