» » »

Dave Matthews Band - Don't Drink The Water Tabs

Artists:  A B C D E F G H I J K L M N O P Q R S T U V W X Y Z # 

Don't Drink The Water Tabs

(ver. 1) Click to play this song!
Dave Matthews Band
 Rating:
4/5 (4 votes)

 Don't Drink The Water lessons Tabs too difficult? Try these video lessons and learn fast
 
                
NOTE: This song is in Drop D tuning (DADGBe)

This is pretty much the main chord.

“Come out, come out, no use in hiding…” 
e|--------
B|--------
G|---7---
D|---7---
A|---5—
D|---0---

“So you will lay your arms down…”                “Yes I will call this home”
e|-------------------------------------------------------
B|-------------------------------------------------------
G|-7-----------------------------------7-------------7---
D|-7-----------------------------------7-------------7---
A|-5-----------------------------------5-------------5---
D|-5-----------------------------------0-------------5---

“What’s this you say, you feel…”
e|-----------
B|-----------
G|---4------
D|---4------
A|---2------
D|---0------

“to remain and stay, well I will burry you”
e|-------------------------------------------------------
B|-------------------------------------------------------
G|-7---------------------------------------------7-------
D|-7---------------------------------------------7------- 
A|-5---------------------------------------------5-------
D|-5---------------------------------------------0-------


"Now as I rest my feet by this fire...."
e|---------------------------------------
B|---------------------------------------
G|-7--------7--------------------7-------
D|-7--------7--------------------7------- 
A|-5--------5--------------------5-------
D|-0--------5--------------------0-------

"Upon these poor souls, I'll build Heaven and call it home"
e|-------------------------------------------------------------------
B|-------------------------------------------------------------------
G|---4--------------------------------7-------------------------7----
D|---4--------------------------------7-------------------------7----
A|---2--------------------------------5-------------------------5----
D|---0--------------------------------5-------------------------0----

“And I live with my Justice”

e| -----------------------------
B| -----------------------------
G| -7-7-7-7-7-7-7-7-7-7---------
D| -8-8-8-8-8-8h7-7-7-7---------
A|--5-5-5-5-5-5-5-5-5-5---------
            
Submit corrections


        Don't Drink The Water lessons Hard to play? Try these video lessons and learn fast Don't Drink The Water lessons
        
↑ Back to top | Tablatures and chords for acoustic guitar and electric guitar, ukulele, drums are parodies/interpretations of the original songs. You may use it for private study, scholarship, research or language learning purposes only