Home » D » Daughter »

Daughter - New Ways Tabs

Artists:  A B C D E F G H I J K L M N O P Q R S T U V W X Y Z # 

New Ways Tabs

(ver. 2) Click to play this song!
Daughter
  Gtr 1: Clean
d|-------------------------------------------| (3x)
B|-------------------------------------------|
G|-------------------------------------------|
D|-------------------------------------------|
G|-----11--11\6/7---7-7-\6---6---6------11---|
D|---9------------5--------4--------4/9------|
|
| Gtr 2: (Distorted/Reverse Effect), not 100% sure whats going on here, but these are the notes.
d|-------------------------------------------|
B|---10-12-----------------------------------|
G|-------------------------------------------|
D|-------------------------------------------|
G|-------------------------------------------|
D|-------------------------------------------|


  Gtr 1: Clean
d|-------------------------------------------| (1x)
B|-------------------------------------------|
G|-------------------------------------------|
D|--------0----------------------------------|
G|-----11--11\6/7---7-7-\6---6---6------11---|
D|---9------------5--------4--------4/9------|
|
| Gtr 2: (Distorted/Reverse Effect)
d|-------------------------------------------|
B|---10-12-----------------------------------|
G|-------------------------------------------|
D|-------------------------------------------|
G|-------------------------------------------|
D|-------------------------------------------|


  Gtr 1: Clean
d|-------------------------------------------|
B|-------------------------------------------|
G|-------------------------------------------|
D|-------------------------------------------|
G|-----4--------7-7-7\6---6----6\4-----4-----|
D|---2----(5)/9---------7-----------5--------|
|
| Gtr 2: (Distorted/Reverse Effect)
d|-------------------------------------------|
B|---10-12-----------------------------------|
G|-------------------------------------------|
D|-------------------------------------------|
G|-------------------------------------------|
D|-------------------------------------------|


  Gtr 1: Clean
d|-------------------------------------------|
B|-------------------------------------------|
G|-------------------------------------------|
D|-------------------------------------------|
G|-----4--------7-7-7\6----6-6-6-------------|
D|---2----(5)/9----------7-------------------|
|
| Gtr 2: (Distorted/Reverse Effect)
d|-------------------------------------------|
B|---10-12-----------------------------------|
G|-------------------------------------------|
D|-------------------------------------------|
G|-------------------------------------------|
D|-------------------------------------------|


  Gtr 1: Clean
d|-------------------------------------------| 
B|-------------------------------------------|
G|-------------------------------------------|
D|-------------------------------------------|
G|-----11--11\6/7---7-7-\6---6---6------11---|
D|---9------------5--------4--------4/9------|
|
| Gtr 2: (Distorted/Reverse Effect)
d|-------------------------------------------|
B|---10-12-----------------------------------|
G|-------------------------------------------|
D|-------------------------------------------|
G|-------------------------------------------|
D|-------------------------------------------|


  Gtr 1: Clean
d|-------------------------------------------| 
B|-------------------------------------------|
G|-------------------------------------------|
D|-----------------------------------------0-|
G|-----11--11\6/7---7-7-\6---6---6------11---|
D|---9------------5--------4--------4/9------|
|
| Gtr 2: (Distorted/Reverse Effect)
d|-------------------------------------------|
B|---10-12-----------------------------------|
G|-------------------------------------------|
D|-------------------------------------------|
G|-------------------------------------------|
D|-------------------------------------------|


  Gtr 1: Clean
d|-------------------------------------------| 
B|-------------------------------------------|
G|-------------------------------------------|
D|-------------------------------------------|
G|-----11--11\6/7---7-7-\6---6---6------11---|
D|---9------------5--------4--------4/9------|
|
| Gtr 2: (Distorted/Reverse Effect)
d|-------------------------------------------|
B|---10-12-----------------------------------|
G|-------------------------------------------|
D|-------------------------------------------|
G|-------------------------------------------|
D|-------------------------------------------|


  Gtr 1: Clean
d|-------------------------------------------|
B|-------------------------------------------|
G|-------------------------------------------|
D|---------------------------0---------------|
G|-----4--------7-7-7\6----6---6\(4)--4------|
D|---2----(5)/9----------7----------5--------|
|
| Gtr 2: (Distorted/Reverse Effect)
d|-------------------------------------------|
B|---10-12-----------------------------------|
G|-------------------------------------------|
D|-------------------------------------------|
G|-------------------------------------------|
D|-------------------------------------------|


  Gtr 1: Clean
d|-------------------------------------------|
B|-------------------------------------------|
G|-------------------------------------------|
D|---------------------------0---------------|
G|-----4--------7-7-7\6----6---6-6-6-6-6-----|
D|---2----(5)/9----------7-------------------|
|
| Gtr 2: (Distorted/Reverse Effect)
d|--------------------14---------------------|
B|---10-12-----------------------------------|
G|-------------------------------------------|
D|-------------------------------------------|
G|-------------------------------------------|
D|-------------------------------------------|
|
| Gtr 3: Distorted
d|-------------------------------------------|
B|-------------------------------------------|
G|-------------------------------999999999---|
D|-------------------------------------------|
G|-------------------#-----------------------|
D|-------------------#-----------------------|



||||||||||||||||||||||||||||||||||||||||||||||


  Gtr 1
d|-------------------------------------------|
B|-------------------------------------------|
G|-------------------------------------------|
D|--0-----------------0----------------------|
G|--2-----------------6----------------------|
D|--0-----------------4----------------------|
|
| Gtr 2
d|-------------------------------------------|
B|-------------------------------------------|
G|--7--------------11\4-----------2----------|
D|-------------------------------------------|
G|-------------------------------------------|
D|-------------------------------------------|


  Gtr 1
d|-------------------------------------------|
B|-------------------------------------------|
G|-------------------------------------------|
D|--0-----------------0-----------0----------|
G|--2-----------------6-----------7----------|
D|--0-----------------4-----------5----------|
|
| Gtr 2
d|-------------------------------------------|
B|-------------------------------------------|
G|--7----\6-/11-----\4---/6\4\2--------------|
D|-------------------------------------------|
G|-------------------------------------------|
D|-------------------------------------------|


  Gtr 1
d|-------------------------------------------|
B|-------------------------------------------|
G|-------------------------------------------|
D|--0-----------------0----------------------|
G|--2-----------------6----------------------|
D|--0-----------------4----------------------|
|
| Gtr 2
d|-------------------------------------------|
B|-------------------------------------------|
G|--7--------------11\4-----------2----------|
D|-------------------------------------------|
G|-------------------------------------------|
D|-------------------------------------------|


  Gtr 1
d|-------------------------------------------|
B|-------------------------------------------|
G|-------------------------------------------|
D|--0-----------------0----------------------|
G|--2-----------------6-----------11---------|
D|--0-----------------4----------------------|
|
| Gtr 2
d|-------------------------------------------|
B|-------------------------------------------|
G|--7----\6-/11-----\4---/6\4\2---11---------|
D|-------------------------------------------|
G|-------------------------------------------|
D|-------------------------------------------|


||||||||||||||||||||||||||||||||||||||||||||||


  Gtr 1 
d|----------------------------------------| (2x)
B|----------------------------------------|
G|----------------------------------------|
D|----------------------------------------|
G|-7-----------------------------11-------|
D|----------------------------------------|
|
| Gtr 2
d|----------------------------------------|
B|----------------------------------------|
G|-7-----------------------------11-------|
D|----------------------------------------|
G|----------------------------------------|
D|----------------------------------------|


  Gtr 1                          *(Octaver)
d|----------------------------------------|
B|----------------------------------------|
G|----------------------------------------|
D|----------------------------------------|
G|-7-----------------------------7--------|
D|----------------------------------------|
|
| Gtr 2
d|----------------------------------------|
B|----------------------------------------|
G|-7-----------------------------7--------|
D|----------------------------------------|
G|----------------------------------------|
D|----------------------------------------|


 Gtr 1 *(Octaver)         
d|----------------------------------------| (3x)
B|----------------------------------------|
G|----------------------------------------|
D|----------------------------------------|
G|----------------------------------------|
D|-9-------7--------5--------2----12------|
|
| Gtr 2
d|----------------------------------------|
B|----------------------------------------|
G|-4~-----------------------------7-------|
D|----------------------------------------|
G|----------------------------------------|
D|----------------------------------------|


 Gtr 1 *(Octaver)         
d|----------------------------------------|
B|----------------------------------------|
G|----------------------------------------|
D|----------------------------------------|
G|----------------------------------------|
D|-9-------7--------5-----------------12\-|
|
| Gtr 2
d|----------------------------------------|
B|----------------------------------------|
G|-4~------2--------0---------------------|
D|----------------------------------------|
G|----------------------------------------|
D|----------------------------------------|


|||||||||||||||||||||||||||||||||||||||||||||||||||||||||||||||||


 Gtr 1 *(Octaver) 
d|---------------------------------------------------------------------| (8x)
B|---------------------------------------------------------------------|
G|---------------------------------------------------------------------|
D|---------------------------------------------------------------------|
G|---------------------------------------------------------------------|
D|-9----------------7-7-------------5----------------2-----------12----|
|
| Gtr 2 (Distorted/Ambient)
d|---------------------------------------------------------------------|
B|-10-------------------------------10---------------------------------|
G|---11-----11------------------------11-------------9-----------------|
D|---------------------------------------------------------------------|
G|---------------------------------------------------------------------|
D|---------------------------------------------------------------------|
|
| Gtr 3 (Clean)
d|-12-------------------------------12---------------------------------|
B|---12----12-----------10---10h12----12----12-------------------------|
G|-------11--11--11-9-9---11--------------11--11--11-14--14--12--12----|
D|-----12------12----7-7----------------12------12-----14--14--14--14--|
G|---------------------------------------------------------------------|
D|---------------------------------------------------------------------|
|
|
*There's a 4th guitar here playing a clean part in the right speaker, but it's very faint.


 Gtr 1 *(Octaver) 
d|---------------------------------------------------------------------| 
B|---------------------------------------------------------------------|
G|---------------------------------------------------------------------|
D|---------------------------------------------------------------------|
G|---------------------------------------------------------------------|
D|-9----------------7-7-------------5----------------2-----------12----|
|
| Gtr 2 (Distorted/Ambient)
d|---------------------------------------------------------------------|
B|---------------------------------------------------------------------|
G|-9b-------------------------------4----------------------------------|
D|----------------------------------------------------7----------------|
G|---------------------------------------------------------------------|
D|---------------------------------------------------------------------|
|
| Gtr 3 (Clean)
d|-12-------------------------------12---------------------------------|
B|---12----12-----------10---10h12----12----12-------------------------|
G|-------11--11--11-9-9---11--------------11--11--11-14--14--12--12----|
D|-----12------12----7-7----------------12------12-----14--14--14--14--|
G|---------------------------------------------------------------------|
D|---------------------------------------------------------------------|



 Gtr 1 *(Octaver) 
d|---------------------------------------------------------------------|
B|---------------------------------------------------------------------|
G|---------------------------------------------------------------------|
D|---------------------------------------------------------------------|
G|---------------------------------------------------------------------|
D|-9----------------7-7-------------5----------------2-----------12----|
|
| Gtr 2 (Distorted/Ambient)
d|---------------------------------------------------------------------|
B|-----------------------12--------------------------------------------|
G|-9b-------------------------------4-----------------2------4---------|
D|---------------------------------------------------------------------|
G|---------------------------------------------------------------------|
D|---------------------------------------------------------------------|
|
| Gtr 3 (Clean)
d|-12-------------------------------12---------------------------------|
B|---12----12-----------10---10h12----12----12-------------------------|
G|-------11--11--11-9-9---11--------------11--11--11-14--14--12--12----|
D|-----12------12----7-7----------------12------12-----14--14--14--14--|
G|---------------------------------------------------------------------|
D|---------------------------------------------------------------------|


||||||||||||||||||||||||||||||||||||||||||||||||||||||||||||||||||||||||||



Gtr 1 *(Octaver) 
d|---------------------------------------------------------------------| 
B|---------------------------------------------------------------------|
G|---------------------------------------------------------------------|
D|---------------------------------------------------------------------|
G|---------------------------------------------------------------------|
D|-9----------------7-7-------------5----------------2-----------12----|
|
| Gtr 2 (Distorted/Ambient)
d|------------------------------------------------------------14-------|
B|---------------------------------------------------------------------|
G|-9b--------------------4----------4----------------------------------|
D|----------------------------------------------------7----------------|
G|---------------------------------------------------------------------|
D|---------------------------------------------------------------------|
|
| Gtr 3 (Clean)
d|-12-------------------------------12---------------------------------|
B|---12----12-----------10---10h12----12----12-------------------------|
G|-------11--11--11-9-9---11--------------11--11--11-14--14--12--12----|
D|-----12------12----7-7----------------12------12-----14--14--14--14--|
G|---------------------------------------------------------------------|
D|---------------------------------------------------------------------|



Gtr 1 *(Octaver) 
d|---------------------------------------------------------------------| 
B|---------------------------------------------------------------------|
G|---------------------------------------------------------------------|
D|---------------------------------------------------------------------|
G|---------------------------------------------------------------------|
D|-9----------------7-7-------------5----------------2-----------12----|
|
| Gtr 2 (Distorted/Ambient)
d|---------------------------------------------------------------------|
B|---------------------------------------------------------------------|
G|-9b--------------------4----------4------------------------11--------|
D|---------------------------------------------------------------------|
G|---------------------------------------------------------------------|
D|---------------------------------------------------------------------|
|
| Gtr 3 (Clean)
d|-12-------------------------------12---------------------------------|
B|---12----12-----------10---10h12----12----12-------------------------|
G|-------11--11--11-9-9---11--------------11--11--11-14--14--12--12----|
D|-----12------12----7-7----------------12------12-----14--14--14--14--|
G|---------------------------------------------------------------------|
D|---------------------------------------------------------------------|



Gtr 1 *(Octaver) 
d|---------------------------------------------------------------------| 
B|---------------------------------------------------------------------|
G|---------------------------------------------------------------------|
D|---------------------------------------------------------------------|
G|---------------------------------------------------------------------|
D|-9----------------7-7-------------5----------------2-----------12----|
|
| Gtr 2 (Distorted/Ambient)
d|------------------------------------------------------------16-------|
B|---------------------------------------------------------------------|
G|-9b-------------------------------4-----------------11---------------|
D|---------------------------------------------------------------------|
G|---------------------------------------------------------------------|
D|---------------------------------------------------------------------|
|
| Gtr 3 (Clean)
d|-12-------------------------------12---------------------------------|
B|---12----12-----------10---10h12----12----12-------------------------|
G|-------11--11--11-9-9---11--------------11--11--11-14--14--12--12----|
D|-----12------12----7-7----------------12------12-----14--14--14--14--|
G|---------------------------------------------------------------------|
D|---------------------------------------------------------------------|



 Gtr 1 *(Octaver) 
d|---------------------------------------------------------------------| 
B|---------------------------------------------------------------------|
G|---------------------------------------------------------------------|
D|---------------------------------------------------------------------|
G|---------------------------------------------------------------------|
D|-9----------------7-7-------------5----------------2/----------------|
|
| Gtr 2 (Distorted/Ambient)
d|---------------------------------------------------------------------|
B|---------------------------------------------------------------------|
G|-9b-------------------------------4----------------11----------------|
D|-----------------------------------------------------------9---------|
G|---------------------------------------------------------------------|
D|---------------------------------------------------------------------|
|
| Gtr 3 (Clean)
d|-12-------------------------------12---------------------------------|
B|---12----12-----------10---10h12----12----12-------------------------|
G|-------11--11--11-9-9---11--------------11--11--11-14--14--12--12----|
D|-----12------12----7-7----------------12------12-----14--14--14--14--|
G|---------------------------------------------------------------------|
D|---------------------------------------------------------------------|            
Submit corrections

↑ Back to top | Tablatures and chords for acoustic guitar and electric guitar, ukulele, drums are parodies/interpretations of the original songs. You may use it for private study, scholarship, research or language learning purposes only