Home » D » Daughter »

Daughter - New Ways Tabs

Artists:  A B C D E F G H I J K L M N O P Q R S T U V W X Y Z # 

New Ways Tabs

(ver. 1) Click to play this song!
Daughter
e|---------------------------------------------------------------------------|
B|---------------------------------------------------------------------------|
G|---------------------------------------------------------------------------|
D|----------------------------------4----------------------------------------|
A|---2/9--9--9\4/5--5--5\4--4--4\2-------------------------------------------|
E|---------------------------------------------------------------------------|


Interlude: *let each note ring out and slide between each note*
e|---------------------------------------------------------------------------|
B|---------------------------------------------------------------------------|
G|---7------11------4------2------7\6------11------4---4/6\4---2-------------|  [x2]
D|---------------------------------------------------------------------------|
A|---------------------------------------------------------------------------|
E|---------------------------------------------------------------------------|

e|---------------------------------------------------------------------------|
B|---------------------------------------------------------------------------|
G|-------------11\7----------------------------------------------------------|   [x2]
D|---------------------------------------------------------------------------|
A|---------------------------------------------------------------------------|
E|---------------------------------------------------------------------------|

Chorus 1:
I'm trying to get out
Find a subtle way out
Not just cross myself out
Not just disappear

I've been trying to stay out
But there's something in you
I can't be without
I just need it here

I'm trying to get out
Find a subtle way out
Not to cross myself out
Not to disappear

I've been trying to stay out
But there's something in you
I can't be without
I just need it here

e|---------------------------------------------------------------------------|
B|---------------------------------------------------------------------------|
G|----7\4--------------------------------------------------------------------|   [x4]
D|---------------------------------------------------------------------------|
A|---------------------------------------------------------------------------|
E|---------------------------------------------------------------------------|

Interlude/Chorus 2: *Mess around with how many times you play each part*
I'm trying to get out
Find a subtle way out
Not just cross myself out
Not just disappear

I've been trying to stay out
But there's something in you
I can't be without
I just need it here

I'm trying to get out
Find a subtle way out
Not to cross myself out
Not to disappear

I've been trying to stay out
But there's something in you
I can't be without
I just need it here

Oh I need
New ways to waste my time
I need new ways
To waste my time

I'm trying to get out
Find a subtle way out
Not just cross myself out
Not just disappear

I've been trying to stay out
But there's something in you
I can't be without
I just need it here

I'm trying to get out
Find a subtle way out
Not to cross myself out
Not to disappear

I've been trying to stay out
But there's something in you
I can't be without
I just need it here

I just need it here

Oh I need
New ways to waste my time
I need new ways
To waste my time

Oh I need
New ways to waste my time
I need new ways
To waste my time

e|----10p7h10p7------9--9------10p7h10p7------12--12-------------------------|
B|---------------------------------------------------------------------------|
G|---------------------------------------------------------------------------|
D|---------------------------------------------------------------------------|
A|---------------------------------------------------------------------------|
E|---------------------------------------------------------------------------|

I just need it here

Oh I need
New ways to waste my time
I need new ways
To waste my time

Oh I need
New ways to waste my time
I need new ways
To waste my time

e|----10p7h10p7------9--9------10p7h10p7------12--12-------------------------|
B|---------------------------------------------------------------------------|
G|---------------------------------------------------------------------------|
D|---------------------------------------------------------------------------|
A|---------------------------------------------------------------------------|
E|---------------------------------------------------------------------------|

e|----10p7h10p7------9--9------7b7b7b7br------12--12-------------------------|
B|---------------------------------------------------------------------------|
G|---------------------------------------------------------------------------|
D|---------------------------------------------------------------------------|
A|---------------------------------------------------------------------------|
E|---------------------------------------------------------------------------|

e|----10p7h10p7------9--9------10p7h10p7------12--12-------------------------|
B|---------------------------------------------------------------------------|
G|---------------------------------------------------------------------------|   [x4]
D|---------------------------------------------------------------------------|
A|---------------------------------------------------------------------------|
E|---------------------------------------------------------------------------|            
Submit corrections

↑ Back to top | Tablatures and chords for acoustic guitar and electric guitar, ukulele, drums are parodies/interpretations of the original songs. You may use it for private study, scholarship, research or language learning purposes only