Home » D » Daughter »

Daughter - Shallows Tabs

Artists:  A B C D E F G H I J K L M N O P Q R S T U V W X Y Z # 

Shallows Tabs

(ver. 2) Click to play this song!
Daughter
-------------------------------------------------------------------------------
                             SHALLOWS (Acoustic) - Daughter
-------------------------------------------------------------------------------

This tab is of the version in this video:

Tuning: DGdgBd'(Open G)

CAPO 4

VERSE PART 1

d|-----------------------------------|
B|-8-7-12---12---3---3---3---3---3---|
g|--------0----0---0---0---0---0---0-|
D|-7-7-12--------2---2---0--(0)-(0)--|
G|-----------------------------------|
D|-----------------------------------|

d|----------(0)----------------------|
B|-8-7-12---12---5---5---5---5---5---|
g|--------0----0---0---0---0---0---0-|
D|-7-7-12--------4---0---------------|
G|-----------------------5-----------|
D|-----------------------------------|

d|-----------------------------------|
B|-8-7-12---12---3---3---3---3---3---|
g|--------0----0---0---0---0---0---0-|
D|-7-7-12--(12)--2---2---0---0-------|
G|-----------------------------------|
D|-----------------------------------|

d|----------------------------|
B|-3p0-0------5-------5p0---0-|
g|-----------(0)--------------|
D|----------------------------|
G|--------5-5-------------0---|
D|----------------------------|

VERSE PART 2

d|--------------------------------------------|
B|----8p0---0-----7p0---0-----5-(-5---5p0---0)|
g|--------0-----------0-------0-(---------0--)|
D|--------------------------------------------|
G|-9-9--------7-7---------5-5-----------------|
D|--------------------------------------------|
                                (only play this phrase
                                 the first time through)
d|--------------|------
B|----8p0---0---|-8-7---
g|--------0-----|------
D|--------------|-7-7---
G|-9-9--------7-|------
D|--------------|----
                  to PART 1

Play through PART 1 & 2 three times 
then

CHORUS

d|----------------------------------|
B|----------------------------------| <-- after the first time through,
g|------0-0-----0-0-----0-0-----0-0-| <-- any combination of these strings
D|------0-0-----0-0-----0-0-----0-0-| <-- can be used for the off beats 
G|----------------------------------|     (even the high d later on)
D|-2-2-2-2-0-0-0-0-5-5-5-5-5-5-5-0--|  x8

BRIDGE

d|-----------------|
B|------0-0-----0-0|
g|------0-0-----0-0|
D|-----------------|
G|-5-5-5-5-5-5-5-5-|
D|-----------------|

VERSE PART 2 (VARIATION)

d|------------------------------------|
B|------8-8-----7-7-----5-5---5p0---0-|
g|------0-0-----0-0-----0-0-------0---|
D|------------------------------------|
G|-9-9-9-9-7-7-7-7-5-5-5-5-5-5--------|
D|------------------------------------|

d|-------------|
B|------8-8----|
g|------0-0----|
D|-------------|
G|-9-9-9-9---7-|
D|-------------|


VERSE PART 1 || 
VERSE PART 2 || x2 

CHORUS

then

d|-----------------|
B|-----5-----------|
g|-----0-----------|
D|-----------------|
G|-5-5-------------|
D|-----------------|

d|--------------------------------------------|
B|----8p0---0-----7p0---0-----5---------------|
g|--------0-----------0-------0---------------|
D|--------------------------------------------|
G|-9-9--------7-7---------5-5-----------------|
D|--------------------------------------------| x2

d|------------------------|
B|----8p0---0-----7---5---|
g|--------0---------------|
D|------------------------|
G|-9-9--------7-7-7---5---|
D|------------------------|

************************************

| /   slide up
| \   slide down
| h   hammer-on
| p   pull-off
| ~   vibrato
| +   harmonic
| x   Mute note
| b   Bend
| () optional

************************************
            
Submit corrections

↑ Back to top | Tablatures and chords for acoustic guitar and electric guitar, ukulele, drums are parodies/interpretations of the original songs. You may use it for private study, scholarship, research or language learning purposes only