Home » C » Cream »

Cream - Toad Tabs

Artists:  A B C D E F G H I J K L M N O P Q R S T U V W X Y Z # 

Toad Tabs

(ver. 3) Click to play this song!
Cream
 (0:00)
  Q=120
  N.C.       E5
 4/4
  Gtr I (El. Gtr. w/ light dist.)
  W          E E E E +Q   E E   E E E E +Q   E E   E E E E +Q   E E
|----------|------------------|------------------|-------------------|
|----------|------------------|------------------|-------------------|
|----------|-9-----9-(9)------|-------9-(9)------|-------9-(9)-------|
|----------|-9-----9-(9)------|-9-----9-(9)------|-9-----9-(9)-------|
|----------|-7-----7-(7)------|-7-----7-(7)------|-7-----7-(7)-------|
|----------|--------------9-7-|-7------------9-7-|-7------------9-7--|


  E E E E +Q   E E   E E E E +E    E E E
|------------------|---------------------|
|------------------|---9-7---------------|
|-------9-(9)------|---9-7---------------|
|-9-----9-(9)------|-------9-(9)\----5h7-|
|-7-----7-(7)------|--------------/7-----|
|-7------------9-7-|---------------------|


  a E E E E Q  +E   E   E E E E +Q   S S E
|---------------------|---------------------|
|-------7-------------|---------------------|
|-------7---9--(9)\---|-9-----9-(9)---------|
|-7s9-------9--(9)\---|-9-----9-(9)---------|
|-----------7--(7)\---|-7-----7-(7)--7------|
|-------------------0-|----------------9-0--|


  E E E E +Q   E E   E E E E +Q   E E
|------------------|------------------|
|------------------|------------------|
|-9-----9-(9)------|-9-----9-(9)------|
|-9-----9-(9)------|-9-----9-(9)------|
|-7-----7-(7)------|-7-----7-(7)------|
|--------------9-7-|--------------9-7-|


  E E E E +Q   E E   E E E E +E    E E E
|------------------|----------------------|
|------------------|---9-7----------------|
|-------9-(9)------|---9-7----------------|
|-9-----9-(9)------|-------9-(9)\----5-7--|
|-7-----7-(7)------|--------------/7------|
|-7------------9-7-|----------------------|


        D   E5
  a E E E E Q   Q    E E E E +Q   E E   E E E E +Q   E E   E E E E +Q   E E
|-------7----------|------------------|------------------|------------------|
|-------7----------|------------------|-------9-(9)------|------------------|
|-------7---9\-----|-9-----9-(9)------|-------9-(9)------|-9-----9-(9)------|
|-7s9-------9\-----|-9-----9-(9)------|-9-----9-(9)------|-9-----9-(9)------|
|-----------7\-----|-7-----7-(7)------|-7-----7-(7)------|-7-----7-(7)------|
|------------------|--------------9-7-|-7------------9-7-|-7------------9-7-|


                                   N.C.           E5
  E E E E +Q   E E   Q  E E H      Q  Q   Q  Q    W
|------------------|-------------|--------------|------|
|------------------|----9--------|--------------|------|
|-------9-(9)------|----9--------|----9---------|------|
|-9-----9-(9)------|-9--9--------|----9---------|-9----|
|-7-----7-(7)------|-7-----------|-------11--9--|-7----|
|-7------------9-7-|-7-----------|--------------|-0----|


                                     N.C.
  +W           +W           +H.       Q     W
|------------|------------|---------------|------|
|------------|------------|---------------|------|
|------------|------------|---------------|------|
|-(9)--------|-(9)--------|-(9)-----------|------|
|-(7)--------|-(7)--------|-(7)-----------|------|
|-(0)--------|-(0)--------|-(0)------/9\--|-0----|


  +W           +W           +W           +W
|------------|------------|------------|--------|
|------------|------------|------------|--------|
|------------|------------|------------|--------|
|------------|------------|------------|--------|
|------------|------------|------------|--------|
|-(0)--------|-(0)--------|-(0)--------|-(0)----|


                  |-----3-----|       |-----3-----|     |-----3-----|     |-----3-----|     |-----3-----|
  +H      +Q     +E    +E    +E      +E    +E    +E    +E    +E    +E    +E    +E    +E    +E    +E    +E
|---------------------------------|-------------------------------------------------------------------------|
|---------------------------------|-------------------------------------------------------------------------|
|---------------------------------|-------------------------------------------------------------------------|
|---------------------------------|-------------------------------------------------------------------------|
|---------------------------------|-------------------------------------------------------------------------|
|-(0)----([0])--([0])-([0])-([0])-|-([0])-([0])-([0])-([0])-([0])-([0])-([0])-([0])-([0])-([0])-([0])-([0])-|


                             >               <
    |--3--|
   +E    +Q    +H.          +H       +Q     +Q
|------------------------|------------------------|
|------------------------|------------------------|
|------------------------|------------------------|
|------------------------|------------------------|
|------------------------|------------------------|
|-([0])-([0])-([0])------|-([0])----([0])--([0])--|


   +E   S  S   +S   S  E   +H
|----------------------------------|
|----------------------------------|
|----------------------------------|
|----------------------------------|
|----------------------------------|
|-([0])---[0]-([0])---[0]-([0])----|


   +W             +W             +H.       Q
|--------------|--------------|-----------------|
|--------------|--------------|-----------------|
|--------------|--------------|-----------------|
|--------------|--------------|------------9s===|
|--------------|--------------|------------9s===|
|-([0])--------|-([0])--------|-([0])-----------|


  Q    Q   Q  Q    Q  E E E E E E   H    Q  E E   E Q  E Q  E E
|----------------|----------------|-------------|----------------|
|----------------|----------------|-------------|----------------|
|----------------|----------------|-------------|----------------|
|-4\-------------|----------------|-------------|----------------|
|-4\-------------|----5---5-----5-|---------5---|-5----5----4----|
|-----/9\--xS=x--|----------0-----|-0----0----0-|---0----0----0--|


  Q.   E +H       +H.      E E   Q  E E +E  E  Q    E  Q  E  a  Q   E E
|---------------|--------------|------------------|---------------------|
|---------------|--------------|------------------|---------------------|
|---------------|--------------|------------------|---------------------|
|---------------|--------------|------------------|----------------12---|
|-2----2-(2)----|-(2)----------|-5----7-(7)---10--|---12----12s14-------|
|---------------|----------0-0-|----0-------0-----|-0-----0-------------|


                                     Drum Solo (1:32)
  E5              N.C.                E5
   Q   Q   H       Q  Q  a  Q  E E    E E Q  H
|---------------|------------------||-------------|
|---------------|------------------||-------------|
|---------------|------------------||-9-----------|
|-14--14\-------|-----9------------||-9-----------|
|-14--14\-------|--------9h11--9s7-||-7-----------|
|-12--12\-------|------------------||-------------|


  Wx4
|--------||
|--------||
|--------||
|--------||
|--------||
|--------||


 (9:27)
  E5
  E Q  E +Q   E E   E E E E +Q   E E   E E E E +Q   E E   E E E E +Q   E E
|-----------------|------------------|------------------|-------------------|
|-----------------|------------------|------------------|-------------------|
|-9-9--9-(9)------|------------------|-------9-(9)------|-------9-(9)-------|
|-9-9--9-(9)------|-9-----9-(9)------|-9-----9-(9)------|-9-----9-(9)-------|
|-7-7--7-(7)------|-7-----7-(7)------|-7-----7-(7)------|-7-----7-(7)--7-7--|
|-------------9-7-|-7------------9-7-|-7------------9-7-|-7------------9-7--|


                   H.=H
                N.C.            E5
  Q  E E H      Q  Q   Q  Q     W          +H.       Q
|-------------|---------------|----------|----------------*|
|----9--------|---------------|----------|----------------*|
|----9--------|---------------|----------|----------------*|
|-9--9--------|----9----------|-2--------|-(2)------------*|
|-7-----------|-------11--9\--|-2--------|-(2)------------*|
|-7-----------|---------------|-0--------|-(0)------/7\---*|            
Submit corrections

↑ Back to top | Tablatures and chords for acoustic guitar and electric guitar, ukulele, drums are parodies/interpretations of the original songs. You may use it for private study, scholarship, research or language learning purposes only