Home » C » Cream »

Cream - White Room Tabs

Artists:  A B C D E F G H I J K L M N O P Q R S T U V W X Y Z # 

White Room Tabs

(ver. 1) Click to play this song!
Cream
 Rating:
4/5 (4 votes)
                White Room - Look at the tab of the solo i submitted for the phatty solo

Brian S.

Intro :  hold all chords except Am7 5 beats
   Gm      F         Dm         C           Am7
|:-3~~~~~--1~~~~~~--(5)---------0~~~~~~-:|--0~~---|--------------|
|:-3~~~~~--1~~~~~~---6~~~~~~~---1~~~~~~-:|--1~~---|--------------|
|:-3~~~~~--2~~~~~~---7~~~~~~~---0~~~~~~-:|--0~~<<<<<<end of intro|
|:-5~~~~~--3~~~~~~---7~~~~~~~---2~~~~~~-:|--2~~---|--------------|
|:(5)------3~~~~~~---5~~~~~~~---3~~~~~~-:|--------|--------------|
|:---------1~~~~~~----------------------:|--------|--------------|
 <<<<<<REPEAT>>>>>>>>>>>>>>>>>>>>>>>>>>>>

Verse:
       D          Cadd9        G/B      Bb5   C5     D
|---|--2----2-----x----------------------------------2---2--------|
|---|--3----3-----3--3-3--------3---3----------------3---3------2-|
|---|--2----2-----0--0-0--------0---0---3-----5------2---2----3---|
|---|--0----0-----x--x-x--------x---x---3-----5------0---0--0-----|
|---|-------------3--3-3--------2---2---1-----3-------------------|
|---|--------------------------------------1----3-----------------|
In a white room with     black cur-tains   near the sta-tion
     Black room country  no gold pavements tired   star-lings
   >>>>>>>no rest go straight to the Bb5>Silver horses      ran down
           
  Cadd9   G/B
|-----------------------------------------------------|
|------3------3------------------2--------3~----------|
|----0------0------------------3-------0--------------|
|----------------------------0------------------------|
|--3------2------------------^------3-----------------|
|----------------------------^------------------------|

  moon beans                 ^to here
           in your dark eyes..........

Chorus :
    C            G/B              Bb         A
|---0-----------------------------1---------------------|
|---1------------3----------------3----------2----------|
|---0------------0----------------3----------2----------|
|---2------------x----------------3----------2----------|
|---3------------2----------------1----------0----------|
|-------------------------------------------------------|
Ill wait in this place, where the sun never shines
  C            G/B              Bb      C         D 
|-0-----------------------------1-------0---------2------|
|-1------------3----------------3-------1---------3------|
|-0------------0----------------3-------0---------2------|
|-2------------x----------------3-------2---------0------|
|-3------------2----------------1-------3----------------|
|--------------------------------------------------------|
 Wait in this place, where the shadows run from themselves

(PLAY INTRO CHORDS 2x than Am7)

 Verse

 Chorus

 Intro Chords,

 Solo : in my other tab
            
Submit corrections

↑ Back to top | Tablatures and chords for acoustic guitar and electric guitar, ukulele, drums are parodies/interpretations of the original songs. You may use it for private study, scholarship, research or language learning purposes only