Home » C » Cream »

Cream - Toad Bass

Artists:  A B C D E F G H I J K L M N O P Q R S T U V W X Y Z # 

Toad Bass

(ver. 2) Click to play this song!
Cream
 (0:00)
  Q=120
 4/4
  Gtr I
  W          E E E E +Q   E E   E E E E +Q   E E   E E E E +Q   E E
|----------|------------------|------------------|-------------------|
|----------|------------------|------------------|-------------------|
|----------|-7-----7-(7)------|-7-----7-(7)------|-7-----7-(7)-------|
|----------|--------------9-7-|--------------9-7-|--------------9-7--|


  E E E E +Q   E E   E E E E +E  E E E   E E E E H      E E E E +Q   E E
|------------------|-------------------|-----7--------|-------------------|
|------------------|-------4-(4)---5-7-|-9------------|-------------------|
|-7-----7-(7)------|---7-5-------7-----|---------7----|-7-----7-(7)-------|
|--------------9-7-|-------------------|--------------|--------------9-7--|


  E E E E +Q   E E   E E E E +Q   E E   E E E E +Q   E E   E E E E +E  E E E
|------------------|------------------|------------------|--------------------|
|------------------|------------------|------------------|-------4-(4)---5-7--|
|-7-----7-(7)------|-7-----7-(7)------|-7-----7-(7)------|---7-5-------7------|
|--------------9-7-|--------------9-7-|--------------9-7-|--------------------|


  E E E E Q  Q    E E E E +Q   E E   E E E E +Q   E E   E E E E +Q   E E
|-----7---------|------------------|------------------|-------------------|
|-9-------------|------------------|------------------|-------------------|
|---------7-----|-7-----7-(7)------|-7-----7-(7)------|-7-----7-(7)-------|
|---------------|--------------9-7-|--------------9-7-|--------------9-7--|


  E E E E +Q   E E   Q  E E H      Q  Q   Q  Q    W
|------------------|-------------|--------------|------|
|------------------|----9--------|----9---------|------|
|-7-----7-(7)------|-7-----------|-------11--9--|-7----|
|--------------9-7-|-------------|--------------|------|


  +W           +W           +W           Wx21
|------------|------------|------------|---------|
|------------|------------|------------|---------|
|-(7)--------|-(7)--------|-(7)--------|---------|
|------------|------------|------------|---------|


                               Drum Solo (1:32)
  Q  Q   H      Q  Q   Q  Q     E E Q  H
|-------------|--------------||-------------|
|-------------|----9---------||-------------|
|-7--7\-------|-------11--9--||-7-----------|
|-------------|--------------||-------------|


  Wx4
|--------||
|--------||
|--------||
|--------||


 (9:27)
  E E E E +Q   E E   E E E E +Q   E E   E E E E +Q   E E   E E E E +Q   E E
|------------------|------------------|------------------|-------------------|
|------------------|------------------|------------------|-------------------|
|-7-----7-(7)------|-7-----7-(7)------|-7-----7-(7)------|-7-----7-(7)-------|
|--------------9-7-|--------------9-7-|--------------9-7-|--------------9-7--|


                   H.=H
                               TP          TP
  Q  E E H      Q  Q   Q  Q    W          +H.      Q
|-------------|--------------|----------|--------------*|
|----9--------|----9---------|----------|--------------*|
|-7-----------|-------11--9--|-7--------|-(7)----------*|
|-------------|--------------|----------|--------------*|            
Submit corrections

↑ Back to top | Tablatures and chords for acoustic guitar and electric guitar, ukulele, drums are parodies/interpretations of the original songs. You may use it for private study, scholarship, research or language learning purposes only