Home » C » Cream »

Cream - Toad Bass

Artists:  A B C D E F G H I J K L M N O P Q R S T U V W X Y Z # 

Toad Bass

(ver. 1) Click to play this song!
Cream
"TOAD"  BY  CREAM
       TABBED FOR BASS BY JOE OHLENBUSCH

       DURING THE GUITAR SOLO JACK BRUCE GOES OFF AND DOES
SOME WEIRD SOLO ON THE BASS SO JUST MAKE SOMETHING UP
FOR THAT PART.  THIS IS THE WAY I HAVE RECORDED IT AND I'M SURE
IT IS CORRECT.  LISTEN TO THE SONG FOR CORRECT TIMING. THIS IS ONE
OF HIS EASIER BASS PARTS.
ENJOY.

SONG SETUP
>>>>>>>>>>>>>
MAIN RIFF  X4
FILL 1  X1
MAIN RIFF  X4
FILL 1  X1
MAIN RIFF  X4
FILL 2  X1
GUITAR SOLO
AWSOME DRUM SOLO
FILL 1  X1
FILL 2  X1
RIFF 2 X3
DRUM FILL
END
              MAIN RIFF
G--------------------------------------------|
D-----2---2----------------2---2-------------|    X2
A------------------4--2--------------4--2----|
E--------------------------------------------|
                FILL 1
G----------------------------------------------------------------|
D-----2------0-----------------------------------------0-------2-|
A---------------------2--------------------0---2-----------------|
E-----------------------------0------3---------------------------|
               FILL 2
G-------------------------------------------------|
D-----------2-------------------------------------|
A------------------------2------------------------|
E-----0------------------------4------2----0------|

     END
G----------------------|
D-----2----------------|
A----------------------|
E----------------------|
            
Submit corrections

↑ Back to top | Tablatures and chords for acoustic guitar and electric guitar, ukulele, drums are parodies/interpretations of the original songs. You may use it for private study, scholarship, research or language learning purposes only