Home » C » Cream »

Cream - Sunshine Of Your Love Ukulele

Artists:  A B C D E F G H I J K L M N O P Q R S T U V W X Y Z # 

Sunshine Of Your Love Ukulele

(ver. 1) Click to play this song!
Cream
[Intro]

A|---3-3-1-3--------------------------------|---3-3-1-3-------------------------------|
E|-----------------2-----1------------------|-----------------2-----1-----------------|
C|----------------------------0---3----0---0|---------------------------0---3----0---0|
G|-------------0----------------------------|-------------0---------------------------|



A|---7-7-5-7--------------------------------|---7-7-5-7-------------------------------|
E|---6-6-4-6-------2-----1---8-------8------|---6-6-4-6-------2-----1---8-------8-----|
C|---7-7-5-7--------------------------------|---7-7-5-7-------------------------------|
G|-------------0-----------------8----------|-------------0-----------------8---------|
            
Submit corrections

↑ Back to top | Tablatures and chords for acoustic guitar and electric guitar, ukulele, drums are parodies/interpretations of the original songs. You may use it for private study, scholarship, research or language learning purposes only