Home » C » Cream »

Cream - Sunshine Of Your Love Bass

Artists:  A B C D E F G H I J K L M N O P Q R S T U V W X Y Z # 

Sunshine Of Your Love Bass

(ver. 1) Click to play this song!
Cream
 Intro
  Q=116
 4/4
  Gtr I
  E E E E E E E E   E E E E Q  q    E E E E E E E E   E E E E Q  q
|-7-7-5-7---------|---------------|-7-7-5-7---------|---------------|
|-----------7---6-|---5-----3-----|-----------7---6-|---5-----3-----|
|-----------------|-------5----5--|-----------------|-------5----5--|
|-----------------|---------------|-----------------|---------------|


  E E E E E Q  E   +E  Q  E Q  q    E E E E E Q  E   +E  Q  E Q  q
|----------------|----------------|----------------|-----------------||
|-----------7--6-|-(6)-5----3-----|-----------7--6-|-(6)-5----3------||
|-5-5-3-5--------|--------5----5--|-5-5-3-5--------|--------5----5---||
|----------------|----------------|----------------|-----------------||


 1st Verse
  E E E E E Q  E   +E  Q  E Q  q    E E E E E Q  E   +E  Q  E Q  q
|----------------|----------------|----------------|-----------------|
|-----------7--6-|-(6)-5----3-----|-----------7--6-|-(6)-5----3------|
|-5-5-3-5--------|--------5----5--|-5-5-3-5--------|--------5----5---|
|----------------|----------------|----------------|-----------------|


  E E E E E Q  E   +E  Q  E Q  q    E E E E E Q  E   +E  Q  E Q  q
|----------------|----------------|----------------|-----------------|
|-----------7--6-|-(6)-5----3-----|-----------7--6-|-(6)-5----3------|
|-5-5-3-5--------|--------5----5--|-5-5-3-5--------|--------5----5---|
|----------------|----------------|----------------|-----------------|


  E E E E E Q  E   +E  Q  E Q  q    E E E E E Q  E   +E  Q  E Q  q
|----------------|----------------|----------------|-----------------|
|-5-5-3-5--------|----------------|-5-5-3-5--------|-----------------|
|-----------5--4-|-(4)-3----1-----|-----------5--4-|-(4)-3----1------|
|----------------|--------3----3--|----------------|--------3----3---|


  E E E E E Q  E   +E  Q  E Q  q    E E E E E Q  E   +E  Q  E Q  q
|----------------|----------------|----------------|-----------------||
|-----------7--6-|-(6)-5----3-----|-----------7--6-|-(6)-5----3------||
|-5-5-3-5--------|--------5----5--|-5-5-3-5--------|--------5----5---||
|----------------|----------------|----------------|-----------------||


 Chorus
  E. S E E H      Q  Q  Q  Q    E. S E E H      Q  Q  Q  Q
|---------------|-------------|---------------|--------------|
|---------------|-------------|---------------|--------------|
|---------------|-3-----------|---------------|-3------------|
|-5--5-5--------|-------3-----|-5--5-5--------|-------3------|


  E. S Q  H      Q  Q  Q  Q    Q  Q  Q  Q    E Q  E +E  E E E
|--------------|-------------|-------------|-------------------|
|--------------|-------------|-------------|-------------------|
|--------------|-3-----------|-------------|--------------3-4--|
|-5--5-5-------|-------3-----|-5--5--5--5--|-5-5--5-(5)-5------|


                                     2nd Verse
  E E E E E Q  E   +E  E E E Q  q     E E E E E Q  E   +E  Q  E Q  q
|----------------|-----------------||----------------|-----------------|
|-----------7--6-|-(6)-5-----3-----||-----------7--6-|-(6)-5----3------|
|-5-5-3-5--------|---------5----5--||-5-5-3-5--------|--------5----5---|
|----------------|-----------------||----------------|-----------------|


  E E E E E Q  E   +E  Q  E Q  q    E E E E E Q  E   +E  Q  E Q  q
|----------------|----------------|----------------|-----------------|
|-----------7--6-|-(6)-5----3-----|-----------7--6-|-(6)-5----3------|
|-5-5-3-5--------|--------5----5--|-5-5-3-5--------|--------5----5---|
|----------------|----------------|----------------|-----------------|


  E E E E E Q  E   +E  Q  E Q  q    E E E E E Q  E   +E  Q  E Q  q
|----------------|----------------|----------------|-----------------|
|-----------7--6-|-(6)-5----3-----|-5-5-3-5--------|-----------------|
|-5-5-3-5--------|--------5----5--|-----------5--4-|-(4)-3----1------|
|----------------|----------------|----------------|--------3----3---|


  E E E E E Q  E   +E  Q  E Q  q    E E E E E Q  E   +E  Q  E Q  q
|----------------|----------------|----------------|-----------------|
|-5-5-3-5--------|----------------|-----------7--6-|-(6)-5----3------|
|-----------5--4-|-(4)-3----1-----|-5-5-3-5--------|--------5----5---|
|----------------|--------3----3--|----------------|-----------------|


                                    Chorus
  E E E E E Q  E   +E  Q  E Q  q     E. S Q  H      Q  Q  Q  Q
|----------------|----------------||--------------|--------------|
|-----------7--6-|-(6)-5----3-----||--------------|--------------|
|-5-5-3-5--------|--------5----5--||--------------|-3------------|
|----------------|----------------||-5--5-5-------|-------3------|


  E. S Q  H      Q  Q  Q  Q    E. S Q  H      Q  Q  Q  Q
|--------------|-------------|--------------|--------------|
|--------------|-------------|--------------|--------------|
|--------------|-3-----------|--------------|-3------------|
|-5--5-5-------|-------3-----|-5--5-5-------|-------3------|


                                    Guitar Solo
  Q  E E q  Q    e E e E e E E E     E E E E E E E E   E E E E Q  q
|--------------|-----------------||------------------|----------------|
|--------------|-----------------||o-----------7---6-|---5-----3------|
|--------------|-------------3-4-||o-5-5-3-5---------|-------5----5---|
|-5--5-5-5--5--|-5-5-5-5-5-5-----||------------------|----------------|


  E E E E E E E E   E E E E Q  q      E E E E E E E E   +E  E E E Q  q
|-----------------|----------------||-----------7---6-|-(6)-5-----3------|
|-----------7---6-|---5-----3-----o||-5-5-3-5---------|---------5----5---|
|-5-5-3-5---------|-------5----5--o||-----------------|------------------|
|-----------------|----------------||-----------------|------------------|


  E E E E E E E E   E E E E Q  q    E E E E E Q  E   +E  Q  E Q  q
|-----------------|---------------|----------------|-----------------|
|-5-5-3-5---------|---------------|-----------7--6-|-(6)-5----3------|
|-----------5---4-|---3-----1-----|-5-5-3-5--------|--------5----5---|
|-----------------|-------3----3--|----------------|-----------------|


  E E E E E Q  E   +E  Q  E Q  q    E. S Q  H      Q  Q  Q  Q
|----------------|----------------|--------------|--------------|
|-----------7--6-|-(6)-5----3-----|--------------|--------------|
|-5-5-3-5--------|--------5----5--|--------------|-3------------|
|----------------|----------------|-5--5-5-------|-------3------|


  E. S Q  H      Q  Q  Q  Q    E. S Q  H      Q  Q  Q  Q
|--------------|-------------|--------------|--------------|
|--------------|-------------|--------------|--------------|
|--------------|-3-----------|--------------|-3------------|
|-5--5-5-------|-------3-----|-5--5-5-------|-------3------|


  e E e E e E e E   e E e E e E E E   E E E E E E E E   E E E E Q  q
|-----------------|-----------------|-----------------|----------------|
|-----------------|-----------------|-----------7---6-|---5-----3------|
|-----------------|-------------3-4-|-5-5-3-5---------|-------5----5---|
|-5---5-5-5---5---|-5-5-5---5-------|-----------------|----------------|


                                    3rd Verse
  E E E E E E E E   E E E E Q  q     E E E E E Q  E   +E  Q  E Q  q
|-----------------|---------------||----------------|-----------------|
|-----------7---6-|---5-----3-----||-----------7--6-|-(6)-5----3------|
|-5-5-3-5---------|-------5----5--||-5-5-3-5--------|--------5----5---|
|-----------------|---------------||----------------|-----------------|


  E E E E E Q  E   +E  Q  E Q  q    E E E E E Q  E   +E  Q  E Q  q
|----------------|----------------|----------------|-----------------|
|-----------7--6-|-(6)-5----3-----|-----------7--6-|-(6)-5----3------|
|-5-5-3-5--------|--------5----5--|-5-5-3-5--------|--------5----5---|
|----------------|----------------|----------------|-----------------|


  E E E E E Q  E   +E  Q  E Q  q    E E E E E E E E   E Q  E Q  q
|----------------|----------------|-----------------|---------------|
|-----------7--6-|-(6)-5----3-----|-5-5-3-5---------|---------------|
|-5-5-3-5--------|--------5----5--|-----------5---4-|---3----1------|
|----------------|----------------|-----------------|------3----3---|


  E E E E E E E E   E Q  E Q  q    E E E E E Q  E   +E  Q  E Q  q
|-----------------|--------------|----------------|-----------------|
|-5-5-3-5---------|--------------|-----------7--6-|-(6)-5----3------|
|-----------5---4-|---3----1-----|-5-5-3-5--------|--------5----5---|
|-----------------|------3----3--|----------------|-----------------|


                                    Chorus
  E E E E E Q  E   +E  Q  E Q  q     E. S Q  H      Q  Q  Q  Q
|----------------|----------------||--------------|--------------|
|-----------7--6-|-(6)-5----3-----||--------------|--------------|
|-5-5-3-5--------|--------5----5--||--------------|-3------------|
|----------------|----------------||-5--5-5-------|-------3------|


  E. S Q  H      Q  Q  Q  Q    E. S Q  H      Q  Q  Q  Q
|--------------|-------------|--------------|--------------|
|--------------|-------------|--------------|--------------|
|--------------|-3-----------|--------------|-3------------|
|-5--5-5-------|-------3-----|-5--5-5-------|-------3------|


  E. S Q  H      Q  Q  Q  Q    E. S Q  H      Q  Q  Q  Q
|--------------|-------------|--------------|--------------||
|--------------|-------------|--------------|--------------||
|--------------|-3-----------|--------------|-3------------||
|-5--5-5-------|-------3-----|-5--5-5-------|-------3------||


   Outro
    E. S E. S S S E E S S   E. S E. S S S E E S S   E. S E. S S S E E S S
||------------------------|-----------------------|------------------------||
||o-----------------------|-----------------------|-----------------------o||
||o-----------------------|-----------------------|-----------------------o||
||--5--5-5--5-5-5-5-5-5-5-|-5--5-5--5-5-5-5-5-5-5-|-5--5-5--5-5-5-5-5-5-5--||

               
Submit corrections

↑ Back to top | Tablatures and chords for acoustic guitar and electric guitar, ukulele, drums are parodies/interpretations of the original songs. You may use it for private study, scholarship, research or language learning purposes only