Home » C » Cream »

Cream - Sunshine Of Your Love Tabs

Artists:  A B C D E F G H I J K L M N O P Q R S T U V W X Y Z # 

Sunshine Of Your Love Tabs

(ver. 1) Click to play this song!
Cream
 [Intro]
  Q=116
  N.C(D)
 4/4
  Gtr I (El. Gtr. w/ light dist.)
                                     ~
    E  E  E  E E  E E  E   E  E E  E Q   E  E
e|-----------------------|--------------------|
B|-----------------------|--------------------|
G|-----------------------|--------------------|
D|-12-12-10-12-----------|--------------------|
A|---------------12---11-|---10------8--------|
E|-----------------------|--------10----10-10-|

 
                                       ~
     E  E  E  E E  E E  E   E  E  E  E Q   q
e|------------------------|-------------------|
B|------------------------|-------------------|
G|------------------------|-------------------|
D|-/12-12-10-12-----------|-------------------|
A|----------------12---11-|---10\------8------|
E|------------------------|---------10----10--|


    D         C   D      N.C.
                                             ~~
     e    e   e    e  E  E E  E   E  E E  E  Q   e  E
e|------------------------------|---------------------|
B|------------------------------|---------------------|
G|--11---11---9---11------------|--------12-10--------|
D|--12---12--10---12------------|--------12-----12----|
A|--12---12--10---12----12---11-|---10----------------|
E|-(10)-(10)-(8)-(10)-----------|------------------10-|


   D     C  D    N.C.
                                      ~~
    e  e  e  e E  E E  E   E  E E  E  Q   e  E
e|-----------------------|----------------------||
B|-----------------------|--------12------------||
G|-11-11--9-11-----------|--------12-10---------||
D|-12-12-10-12-----------|--------12-----12-----||
A|-12-12-10-12---12---11-|---10-------------10--||
E|-10-10--8-10-----------|----------------------||


 [1st Verse]
   D     C  D    N.C.
                                      ~~
    e  e  e  e E  E E  E   E  E E  E  Q   e  E
e|-----------------------|---------------------|
B|-----------------------|---------------------|
G|-11-11--9-11-----------|--------12-10--------|
D|-12-12-10-12-----------|--------12-----12----|
A|-12-12-10-12---12---11-|---10-------------10-|
E|-10-10--8-10-----------|---------------------|


   D     C  D    N.C.
                                      ~~
    e  e  e  e E  E E  E   E  E E  E  Q   e  E
e|-----------------------|----------------------|
B|-----------------------|----------------------|
G|-11-11--9-11-----------|--------12-10---------|
D|-12-12-10-12-----------|--------12-----12-----|
A|-12-12-10-12---12---11-|---10-------------10--|
E|-10-10--8-10-----------|----------------------|


   D     C  D    N.C.
                                     ~~
    e  e  e e E  E E  E   E  E E  E  Q   e  E
e|----------------------|---------------------|
B|----------------------|---------12-----------|
G|-11-11--9-11-----------|--------12-10--------|
D|-12-12-10-12-----------|--------12-----12----|
A|-12-12-10-12---12---11-|---10-------------10-|
E|-10-10--8-10-----------|---------------------|


   D     C  D    N.C.
                                      ~~
    e  e  e  e E  E E  E   E  E E  E  Q   e  E
e|-----------------------|----------------------|
B|-----------------------|--------12------------|
G|-11-11--9-11-----------|--------12-10---------|
D|-12-12-10-12-----------|--------12-----12-----|
A|-12-12-10-12---12---11-|---10-------------10--|
E|-10-10--8-10-----------|----------------------|


   G     F  G    N.C.
    e  e  e  e E  E E a  E   E  E E  E E.    +S   E  E
e|-------------------------|---------------------------|
B|-12-12-10-12-------------|---------------------------|
G|-12-12-10-12-------------|---------------------------|
D|-12-12-10-12---12-----11-|---10------8b8.5-(8)-------|
A|-10-10--8-10--------x----|--------10-----------10-10-|
E|-------------------------|---------------------------|


   G     F  G    N.C.
    e  e  e  e E  E E  E   E  E E  E S E S    E  E
e|-----------------------|--------------------------|
B|-12-12-10-12-----------|--------------------------|
G|-12-12-10-12-----------|--------------------------|
D|-12-12-10-12---12---11-|---10------8-8-8b9--------|
A|-10-10--8-10-----------|--------10---------10-----|
E|-----------------------|----------------------10--|


   D     C  D    N.C.
    e  e  e  e E  E E  E   E  E E  E E S S  S S  E
e|-----------------------|-------------------------|
B|-----------------------|-------------------------|
G|-11-11--9-11-----------|-------------x-x---------|
D|-12-12-10-12-----------|-------------x-x---------|
A|-12-12-10-12---12---11-|---10------8-------------|
E|-10-10--8-10-----------|--------10-------10p8h10-|


   D     C  D    N.C.
                                      ~~~
    e  e  e  e E  E E  E   E  E E  E  Q    E  E
e|-----------------------|-----------------------||
B|-----------------------|-----------(0)---------||
G|-11-11--9-11-----------|-----------10----------||
D|-12-12-10-12-----------|----------------12\----||
A|-12-12-10-12---12---11-|---10---------------0--||
E|-10-10--8-10-----------|--------10-------------||


 [Chorus]
   A              C      G        A              C      G
   E. S q  H      Q  e E Q  e E   E. S q  H      Q  e E Q  e E
e|-0--0-0-------|--------3------|-0--0-0-------|--------3-------|
B|-2--2-2-------|-5------3------|-2--2-2-------|-5------3-------|
G|-2--2-2-------|-5--x---4--x---|-2--2-2-------|-5--x---4--x----|
D|-2--2-2-------|-5--x---5--x---|-2--2-2-------|-5--x---5--x----|
A|-0--0-0-------|-3------5------|-0--0-0-------|-3------5-------|
E|--------------|--------3------|--------------|--------3-------|


   A              C     G         A
   E. S q  H      Q  Q  Q   Q     E. S E. S E. S E. S
e|-0--0-0-------|-------3-------|-0--0-0--0-0--0-0--0-|
B|-2--2-2-------|-5-----3-------|-2--2-2--2-2--2-2--2-|
G|-2--2-2-------|-5-----4-------|-2--2-2--2-2--2-2--2-|
D|-2--2-2-------|-5-----5-------|-2--2-2--2-2--2-2--2-|
A|-0--0-0-------|-3-----5-------|-0--0-0--0-0--0-0--0-|
E|--------------|-------3--(0)--|---------------------|


                          D     C  D    N.C.
                                                              ~~
   S E. S E S E E E   E    e  e  e  e E  E E  E   E  E E   E  Q   q
e|-0-0--0-0-0-0-0-0-----|-----------------------|--------------------||
B|-2-2--2-2-2-2-2-2-----|-----------------------|---------12---------||
G|-2-2--2-2-2-2-2-2-----|-11-11--9-11-----------|---------12-10------||
D|-2-2--2-2-2-2-2-2-----|-----------------------|---------12-----12--||
A|-0-0--0-0-0-0-0-0-----|-12-12-10-12---12---11-|---10---------------||
E|------------------/10-|-10-10--8-10-----------|--------------------||


 [2nd Verse]
   D     C  D    N.C.
                                      ~~~
    e  e  e  e E  E E  E   E  E E  E  Q    e  E
e|-----------------------|----------------------|
B|-----------------------|--------12-(0)--------|
G|-11-11--9-11-----------|--------12-10---------|
D|-12-12-10-12-----------|--------12------12----|
A|-12-12-10-12---12---11-|---10--------------10-|
E|-10-10--8-10-----------|----------------------|


   D     C  D    N.C.
                                      ~~
    e  e  e  e E  E E  E   E  E E  E  Q   e  E
e|-----------------------|-----------------------|
B|-----------------------|--------12------------|
G|-11-11--9-11-----------|--------12-10---------|
D|-12-12-10-12-----------|--------12-----12-----|
A|-12-12-10-12---12---11-|---10--------------10--|
E|-10-10--8-10-----------|-----------------------|


   D     C  D      N.C.
                                        ~~
    e  e  e  e  E   E E  E   E  E E  E  Q   e  E
e|-------------------------|---------------------|
B|-------------------------|--------12-----------|
G|-11-11--9-11-------------|--------12-10--------|
D|-12-12-10-12-------------|--------12-----12----|
A|-12-12-10-12-----12---11-|---10-------------10-|
E|-10-10--8-10-(0)---------|---------------------|


   D     C  D    N.C.
                                       ~~~
    e  e  e  e E  E E  E   E  E E   E  Q    e  E
e|-----------------------|------------------------|
B|-----------------------|---------12-(0)---------|
G|-11-11--9-11-----------|---------12-10----------|
D|-12-12-10-12-----------|---------12------12-----|
A|-12-12-10-12---12---11-|---10---------------10--|
E|-10-10--8-10-----------|------------------------|


   G     F  G    N.C.
                                       ~
    e  e  e  e E  E E a  E   E  E E  E Q   E a  E
e|-------------------------|----------------------|
B|-12-12-10-12-------------|----------------------|
G|-12-12-10-12-------------|----------------------|
D|-12-12-10-12---12-----11-|---10------8----------|
A|-10-10--8-10--------x----|--------10----10-8s10-|
E|-------------------------|----------------------|


   G     F  G    N.C.
                                     ~
    e  e  e  e E  E E  E   E  E E  E Q   E  E
e|-----------------------|---------------------|
B|-12-12-10-12-----------|---------------------|
G|-12-12-10-12-----------|---------------------|
D|-12-12-10-12---12---11-|---10------8---------|
A|-10-10--8-10-----------|--------10----10-----|
E|-----------------------|-----------------10--|


   D     C  D    N.C.
                                         ~~
    e  e  e  e E  E E  E   E  E E  S  S  Q   e  E
e|-----------------------|------------------------|
B|-----------------------|------------------------|
G|-11-11--9-11-----------|-----------12-10--------|
D|-12-12-10-12-----------|---10---12--------12----|
A|-12-12-10-12---12---11-|---10----------------10-|
E|-10-10--8-10-----------|------------------------|


   D     C  D    N.C.
                                        ~~
    e  e  e  e E  E E  E   E  E  E   E  Q   E E
e|-----------------------|----------------------||
B|-----------------------|----------12----------||
G|-11-11--9-11-----------|----------12-10-------||
D|-12-12-10-12-----------|----------12-----12---||
A|-12-12-10-12---12---11-|---10-(0)-----------0-||
E|-10-10--8-10-----------|----------------------||


 [Chorus]
   A              C      C        A              C      G
   E. S q  H      Q  e E Q  e E   E. S q  H      Q  e E Q  e E
e|-0--0-0-------|---------------|-0--0-0-------|--------3-------|
B|-2--2-2-------|-5------3------|-2--2-2-------|-5------3-------|
G|-2--2-2-------|-5--x---4--x---|-2--2-2-------|-5--x---4--x----|
D|-2--2-2-------|-5--x---5--x---|-2--2-2-------|-5--x---5--x----|
A|-0--0-0-------|-3------5------|-0--0-0-------|-3----5-5-------|
E|--------------|--------3------|--------------|--------3-------|


   A              C     G         A
   E. S q  H      Q  Q  Q   Q     E. S E. S E. S E. S
e|-0--0-0-------|-------3-------|-0--0-0--0-0--0-0--0-|
B|-2--2-2-------|-5-----3-------|-2--2-2--2-2--2-2--2-|
G|-2--2-2-------|-5-----4-------|-2--2-2--2-2--2-2--2-|
D|-2--2-2-------|-5-----5-------|-2--2-2--2-2--2-2--2-|
A|-0--0-0-------|-3-----5-------|-0--0-0--0-0--0-0--0-|
E|--------------|-------3--(0)--|---------------------|


                          [Guitar Solo]
                            D        C  D    N.C.
  Gtr II (El. Gtr. w/ light dist.)
                             ~~~~~
   H         Q  E   E        W
e|-----------------------||----------------------------|
B|-----------------------||----------------------------|
G|-----------------12b14-||-12b14----------------------|
D|-----------------------||----------------------------|
A|-----------------------||----------------------------|
E|-----------------------||----------------------------|
 |
 | Gtr I
 | E. S E. S Q  e   E        e     e  e  e E  E  E   E
e|-----------------------||----------------------------|
B|-2--2-2--2-2--2--------||----------------------------|
G|-2--2-2--2-2--2--------||-11----11--9-11-------------|
D|-2--2-2--2-2--2--------||-12----12-10-12-------------|
A|-0--0-0--0-0--0--------||-12----12-10-12---12-(0)-11-|
E|----------------/10----||-10----10--8-10-------------|


                                             D         C  D    N.C.
                                              ~~~~~~
                      |-------3-------|
     E   E  E      E  Q     Q         Q       H.                  E  E
e|-----------------------------------------|---------------------------|
B|-----------------------------------------|---------------------------|
G|------12-12pb14-12-12b14-12pb14----12----|-12pb14---------------x----|
D|-----------------------------------------|---------------------------|
A|-----------------------------------------|---------------------------|
E|-----------------------------------------|---------------------------|
 |
 |                    ~~~~~
 |   E   E  E      e  Q            e     E    e      e  e  e E  E E  E
e|-----------------------------------------|---------------------------|
B|-----------------------------------------|---------------------------|
G|-----------------------------------------|-11-----11--9-11-----------|
D|-----------------------------------------|-12-----12-10-12-----------|
A|------10------------8--------------------|-12-----12-10-12---12---11-|
E|-(10)----(0)----10--------------10----10-|-10-----10--8-10-----------|


                                      D     C  D    N.C.
                                       ~~
   E  E     +E  +S  S E E  E    +E     W
e|----------------------------------|-------------------------|
B|-------------------------9b10-(9)-|-------------------------|
G|----9b10==(9)r(9)p7-9-7--9b11-(9)-|--7----------------------|
D|----------------------------------|-------------------------|
A|----------------------------------|-------------------------|
E|----------------------------------|-------------------------|
 |
 | E  E      E   E    E E  e     E     e  e  e  e E  E  E   E
e|----------------------------------|-------------------------|
B|----------------------------------|-------------------------|
G|----------------------------------|-11-11--9-11-------------|
D|----------------------------------|-12-12-10-12-------------|
A|---10---------------8-8-----------|-12-12-10-12---12-(0)-11-|
E|--------------10--------10----10--|-10-10--8-10-------------|


                                                  D        C  D      N.C.
                                                               ~~~~~~
                                  |--3--|
   E  S S S S  E     +E.  +S     +Q     E         +E   S S  E  E +H
e|----------------------------------------------|----------------------------|
B|-------------9b10==(9)r=(9)b10-(9)----9b10----|----------------------------|
G|--------7h9--9b11==(9)r=(9)b11-(9)----9b11r===|=(9)--7h9p=7--7-(7)---------|
D|----7h9---------------------------------------|----------------------------|
A|----------------------------------------------|----------------------------|
E|----------------------------------------------|----------------------------|
 |
 | E  E   E    E      E.  +S      E   S       S    e   e    e  e  E   E E  E
e|----------------------------------------------|----------------------------|
B|----------------------------------------------|----------------------------|
G|----------------------------------------------|-11--11----9-11-------------|
D|----------------------------------------------|-12--12---10-12-------------|
A|---10---------------8b9-(8)-------------------|-12--12---10-12-----12---11-|
E|------------10-----------------10--10------10-|-10--10----8-10-------------|


                                            G        F     G    N.C.
                                                      ~~~~~
   E  E     +E.     +S   Q      Q            Q        H             e  E
e|----------------------------------------|------------------------------|
B|----------------------------------------|------------------------------|
G|---10b14-(10)----(10)-10b14--10b13.5----|-10b12----10b12---------10--7-|
D|----------------------------------------|------------------------------|
A|----------------------------------------|------------------------------|
E|----------------------------------------|------------------------------|
 |
 | E  E      E   E       Q      E       E    e     e  e     e E  E  E  E
e|----------------------------------------|------------------------------|
B|----------------------------------------|-12----12-10----12------------|
G|----------------------------------------|-12----12-10----12------------|
D|----------------------------------------|-12----12-10----12---12----11-|
A|---10------------------8----------------|-10----10--8----10------------|
E|--------------10-------------10------10-|------------------------------|


                                    G     F    G      N.C.
              ~~~
   |---3---|
   Q       E  H           E     E    Q     S E    S E  E      +E    E
e|--------------------------------|------------------------------------|
B|--------------------------------|------------------------------------|
G|-9b11-------7-----------9b11----|---------------7h9--9pb10==(9)r-----|
D|---------9----------------------|--------7h9----------------------9--|
A|--------------------------------|------------------------------------|
E|--------------------------------|------------------------------------|
 |
 | E     E    E   E Q  a  E     E    e  e  e    e   E  E       E    E
e|--------------------------------|------------------------------------|
B|--------------------------------|-12-12-10---12----------------------|
G|--------------------------------|-12-12-10---12----------------------|
D|------10----------8-------------|-12-12-10---12-----12-----------11--|
A|---------------10------10----10-|-10-10--8---10----------------------|
E|-----------(0)-------x----------|------------------------------------|


                                                D       C    D      N.C.
                                                         ~~   ~~~~~~
   |----3-----|          |--3--|                         |3|
   E E       +E  E  E    E     Q         E  E    S S  E  E S  E +H
e|--------------------------------------------|-----------------------------|
B|--------------------------------------------|-----------------------------|
G|-7h9b11----(9)----9b12-------9b11------7--9-|----7h=9--7----7-(7)---------|
D|--------------------------------------------|--9---------9----------------|
A|--------------------------------------------|-----------------------------|
E|--------------------------------------------|-----------------------------|
 |
 | E       E     E  E    S E        +S   e  E    e    e  e    e  E   E E  E
e|--------------------------------------------|-----------------------------|
B|--------------------------------------------|-----------------------------|
G|--------------------------------------------|-11---11--9---11-------------|
D|--------10-------------8-8b9------(8)-------|-12---12-10---12-------------|
A|-----------------10-------------------10----|-12---12-10---12-----12---11-|
E|-----------------------------------------10-|-10---10--8---10-------------|


                               D     C  D     N.C.
          ~~~                   ~~                   ~~~
   Q      Q     E  E  E   e     Q     E  E  Q     a  Q
e|---------------------------|------------------------------|
B|------/13------------------|------------------------------|
G|------/14----12-10-11------|-10----------------10h11------|
D|----------------------(12)-|-------12p10-12---------------|
A|---------------------------|------------------------------|
E|---------------------------|------------------------------|
 |
 | E  E   E  E  Q     E   E     e  e  e  e  E  E     E   E
e|---------------------------|------------------------------|
B|---------------------------|------------------------------|
G|---------------------------|-11-11--9-11------------------|
D|---------------------------|-12-12-10-12------------------|
A|---10---------8------------|-12-12-10-12----12----(0)-11--|
E|----------10-------10-/10--|-10-10--8-10------------------|


                                      A
     ~~~~                                     ~~~~                 ~~~
    +Q     E  e E    E         E  E    E     +Q.       E  E     E  E
e|---------x-10---------------------|--------------------------------|
B|----------------------------------|-----------------13-------------|
G|-(11)-------------10b11--------10-|-12b14-(12)---------12b14-12-10-|
D|----------------------------12----|--------------------------------|
A|----------------------------------|--------------------------------|
E|----------------------------------|--------------------------------|
 |
 |   E   E E  E E.        +S   e  E    e.        S q   H
e|----------------------------------|--0---------0-0-----------------|
B|----------------------------------|--2---------2-2-----------------|
G|----------------------------------|--2---------2-2-----------------|
D|----------------------------------|--2---------2-2-----------------|
A|------10------8b9-------(8)-------|--0---------0-0-----------------|
E|-----------10---------------10----|--------------------------------|


   C             G                A
   ~~~~~~
                                                  |-----3-----|
    +Q    q    a  E  E  a  E  E    E     S  S  E  S      +S   S  E  E     E  E
e|------------------------------|-------------10--------------------------------|
B|------------------13----------|-------10-10-----------------------------------|
G|-(10)--12---12s14----14s12-10-|-12b14----------12pb13r(12)p10----10b11--------|
D|------------------------------|-------------------------------12-------12-----|
A|------------------------------|-------------------------------------------12--|
E|------------------------------|-----------------------------------------------|
 |
 |   Q    e E     Q        e  E    E.       S  q                 q        q
e|----------------3-------------|--0--------0--0--------------------------------|
B|---5------------3-------------|--2--------2--2--------------------------------|
G|---5----x-------4-------------|--2--------2--2-----------------x--------x-----|
D|---5----x-------5-------------|--2--------2--2-----------------x--------x-----|
A|---3------------5-------------|--0--------0--0--------------------------------|
E|---3------------3--------x----|-----------------------------------------------|


   C                    G
     ~~~~
    +Q    a  E  a  E  a  E  a  E  E  E
e|-------------------------------------|
B|-------------------------------10-12-|
G|----------------------10----10-10-12-|
D|----------10----10-10h12-10h12-------|
A|-(12)--10h12-10h12-------------------|
E|-------------------------------------|
 |
 |   Q       e     E     Q        e  E
e|-----------------------3-------------|
B|---5-------------------3-------------|
G|---5-------x-----------4--------x----|
D|---5-------x-----------5--------x----|
A|---3-------------------5-------------|
E|-----------------------3-------------|


   A                                               C              G
       ~~~                                             ~~~
    S  E.    S  S  S  S  S  S  a  E  E     S   S    S  E.  +E   E  E  E     E  E
e|-----------------------------------------------|-------------------------------|
B|----------13----13-13h15-13--------------------|-------------13----15b17-13-15-|
G|-12s14-------14-------------14s12-10b11-12p=10-|-12s14--(14)----14-------------|
D|----------------------------------------(0)----|-------------------------------|
A|-----------------------------------------------|-------------------------------|
E|-----------------------------------------------|-------------------------------|
 |
 |  E.    S  q           Q           E     E        Q       e   E  Q        e  E
e|--0-----0--0-----------------------------------|-----------------3-------------|
B|--2-----2--2-----------------------------------|--5--------------3-------------|
G|--2-----2--2-----------------------------------|--5--------------4-------------|
D|--2-----2--2-----------------------------0-----|--5-------x------5-------------|
A|--0-----0--0-----------------------------------|--3-------x------5--------x----|
E|-----------------------------------------------|-----------------3--------x----|


   A
   E   E    S  S  S  S  E     S  S   e   e      E     S  S  +S   S  a      +E   E       S  S  S  s   S  S
e|----13-------------------------------------|------------------------------------------------------------||
B|----13---15p13-----------------------------|-------13-13-(13)-13----------------------------------------||
G|---------------14s12-10b11--------12--10---|-12b14---------------12pb14r(12)-10b11------------10--------||
D|---------------------------12-(0)----------|-----------------------------------------12p10--------10h12-||
A|-------------------------------------------|-----------------------------------------------12-----------||
E|-------------------------------------------|------------------------------------------------------------||
 |
 | E.    S  E.       S  E.       S   E.    S    E.       S   Q                  S    S  S  S  E      E
e|-0-----0--0--------0--0--------0---0-----0-|--0------------0------------------0----0--0--0--0-----------||
B|-2-----2--2--------2--2--------2---2-----2-|--2------------2------------------2----2--2--2--2-----------||
G|-2-----2--2--------2--2--------2---2-----2-|--2------------2------------------2----2--2--2--2-----------||
D|-2-----2--2--------2--2--------2---2-----2-|--2------------2------------------2----2--2--2--2-----------||
A|-0-----0--0--------0--0--------0---0-----0-|--0--------0---0------------------0----0--0--0--0-----------||
E|-------------------------------------------|-----------0-----------------------------------------/10----||


   D     C  D    N.C.
    q     Q    H           W
e|-----------------------|------------------------|
B|-----------------------|------------------------|
G|-----------------------|------------------------|
D|-----------------------|------------------------|
A|-----------------------|------------------------|
E|-10--------------------|------------------------|
 |
 |                                   ~
 |  e  e  e  e E  E E  E   E  E E  E Q   E   E
e|-----------------------|------------------------|
B|-----------------------|------------------------|
G|-11-11--9-11-----------|------------------------|
D|-12-12-10-12-----------|------------------------|
A|-12-12-10-12---12---11-|---10------8------------|
E|-10-10--8-10-----------|--------10----10-/10----|


   D     C  D    N.C.
   Gtr I
                                       ~~
    e  e  e  e E  E E  E   E  E E   E  Q   e   E
e|-----------------------|------------------------||
B|-----------------------|------------------------||
G|-11-11--9-11-----------|--------!12-10----------||
D|-12-12-10-12-----------|--------!12-----12-(10)-||
A|-12-12-10-12---12---11-|---10---------------10--||
E|-10-10--8-10-----------|------------------------||


 [3rd Verse]
   D     C  D    N.C.
                                          ~~
    e  e  e  e E  E E  E   E  E  E  a  E  Q   e  E
e|-----------------------|-------------------------|
B|-----------------------|------------12-----------|
G|-11-11--9-11-----------|------------12-10--------|
D|-12-12-10-12-----------|---------12--------12----|
A|-12-12-10-12---12---11-|---10\-------------------|
E|-10-10--8-10-----------|----------------------10-|


   D     C  D    N.C.
                                      ~~
    e  e  e  e E  E E  E   E  E E  E  Q   e  E
e|-----------------------|---------------------|
B|-----------------------|---------------------|
G|-11-11--9-11-----------|--------12-10--------|
D|-12-12-10-12-----------|--------12-----12----|
A|-12-12-10-12---12---11-|---10-------------10-|
E|-10-10--8-10-----------|---------------------|


   D     C  D    N.C.
                                      ~~
    e  e  e  e E  E E  E   E  E E  E  Q   e  E
e|-----------------------|-----------------------|
B|-----------------------|-----------------------|
G|-11-11--9-11-----------|--------12-10----------|
D|-12-12-10-12-----------|--------12-----12------|
A|-12-12-10-12---12---11-|---10--------------10--|
E|-10-10--8-10-----------|-----------------------|


   D     C  D    N.C.
                                      ~~
    e  e  e  e E  E E  E   E  E E  E  Q   e  E
e|-----------------------|----------------------|
B|-----------------------|----------------------|
G|-11-11--9-11-----------|--------12-10--------|
D|-12-12-10-12-----------|--------12-----12----|
A|-12-12-10-12---12---11-|---10--------------10-|
E|-10-10--8-10-----------|----------------------|


   G     F  G    N.C.
                                       ~~
    e  e  e  e E  E  E   E   E  E E  E E. S  e  E
e|-------------------------|-----------------------|
B|----12-10-12-------------|-----------------------|
G|----12-10-12-------------|-----------------------|
D|-12-12-10-12---12-----11-|---10------8--8--------|
A|-10-10--8-10------(0)----|--------10------10-10--|
E|-------------------------|-----------------------|


   G     F  G    N.C.
    e  e  e  e E  E  E   E   E  E  E   E S E S    E   E
e|-------------------------|----------------------------|
B|-12-12-10-12-------------|----------------------------|
G|-12-12-10-12-------------|----------------------------|
D|-12-12-10-12---12-----11-|---10--------8-8-8b9--------|
A|-10-10--8-10------(0)----|------(0)-10---------10-----|
E|-------------------------|------------------------/10-|


   D     C  D    N.C.
                                      ~~
    e  e  e  e E  E E  E   E  E E  E  Q   e  E
e|-----------------------|----------------------|
B|-----------------------|----------------------|
G|-11-11--9-11-----------|--------12-10---------|
D|-12-12-10-12-----------|--------12-----12-----|
A|-12-12-10-12---12---11-|---10--------------10-|
E|-10-10--8-10-----------|----------------------|


                                                [Chorus]
   D     C  D    N.C.                             A              C      G
                                      ~~
    e  e  e  e E  E E  E   E  E E  E  Q   e E     E. S q  H      Q  e E Q  e E
e|-----------------------|---------------------||----0-0-------|--------3-------|
B|-----------------------|--------12-----------||-2--2-2-------|-5------3-------|
G|-11-11--9-11-----------|--------12-10--------||-2--2-2-------|-5--x---4-------|
D|-12-12-10-12-----------|--------12-----12----||-2--2-2-------|-5--x---5-------|
A|-12-12-10-12---12---11-|---10--------------0-||-0--0-0-------|-3------5-------|
E|-10-10--8-10-----------|---------------------||--------------|--------3--x----|


   A              C      G        A              C      G
   E. S q  H      Q  e E Q  e E   E. S q  H      Q  e E Q  Q
e|-0--0-0-------|--------3------|-0--0-0-------|--------3------|
B|-2--2-2-------|-5------3------|-2--2-2-------|-5------3------|
G|-2--2-2-------|-5--x---4--x---|-2--2-2-------|-5--x---4------|
D|-2--2-2-------|-5--x---5--x---|-2--2-2-------|-5--x---5------|
A|-0--0-0-------|-3------5------|-0--0-0-------|-3------5------|
E|--------------|--------3------|--------------|--------3------|


   A              C      G        A              C      G
   E. S q  H      Q  e e Q  e E   E. S q  H      Q  e E E E e E
e|-0--0-0-------|--------3------|-0--0-0-------|--------3-3------|
B|-2--2-2-------|-5------3------|-2--2-2-------|-5------3-3------|
G|-2--2-2-------|-5--x-x-4------|-2--2-2-------|-5--x---4-4------|
D|-2--2-2-------|-5--x-x-5------|-2--2-2-------|-5--x---5-5------|
A|-0--0-0-------|-3------5--x---|-0--0-0-------|-3------5---x----|
E|--------------|--------3--x---|--------------|--------3---x----|


 [Outro]
     A                       A
     E. S E. S E. S E. S  5x E E E. S E E E. S
e||--0--0-0--0-0--0-0--0--||-0-0-0--0-0-0-0--0-|
B||o-2--2-2--2-2--2-2--2-o||-2-2-2--2-2-2-2--2-|
G||--2--2-2--2-2--2-2--2--||-2-2-2--2-2-2-2--2-|
D||--2--2-2--2-2--2-2--2--||-2-2-2--2-2-2-2--2-|
A||o-0--0-0--0-0--0-0--0-o||-0-0-0--0-0-0-0--0-|
E||-----------------------||-------------------|


   E. S E. S S S E +S  S E   E. S E E +S  S E E. S
e|-0--0-0--0-0-0-0-(0)-0-0-|-0--0-0-0-(0)-0-0-0--0---*|
B|-2--2-2--2-2-2-2-(2)-2-2-|-2--2-2-2-(2)-2-2-2--2---*|
G|-2--2-2--2-2-2-2-(2)-2-2-|-2--2-2-2-(2)-2-2-2--2---*|
D|-2--2-2--2-2-2-2-(2)-2-2-|-2--2-2-2-(2)-2-2-2--2---*|
A|-0--0-0--0-0-0-0-(0)-0-0-|-0--0-0-0-(0)-0-0-0--0---*|
E|-------------------------|-------------------------*|

            
Submit corrections

↑ Back to top | Tablatures and chords for acoustic guitar and electric guitar, ukulele, drums are parodies/interpretations of the original songs. You may use it for private study, scholarship, research or language learning purposes only