» » »

Coldplay - In My Place Tabs

Artists:  A B C D E F G H I J K L M N O P Q R S T U V W X Y Z # 

In My Place Tabs

(ver. 15) Click to play this song!
Coldplay
 Rating:
4.4/5 (17 votes)

 In My Place lessons Tabs too difficult? Try these video lessons and learn fast
 
                [Intro/Break Riff]

e|--12---12-------------9----9--|
B|-------------------12---12----|
G|-----9----9-------------------|
D|------------------------------| 3x
A|------------------------------|
E|------------------------------|

e|--12---12-------------9----9--|
B|-------------12/14-12---12----|
G|-----9------------------------|
D|------------------------------|
A|------------------------------|
E|------------------------------|

e|--12---12-------------9----9--|
B|-------------------12---12----|
G|-----9----9-------------------|
D|------------------------------| 3x
A|------------------------------|
E|------------------------------|

e|--12---12-------------9----9--|
B|-------------12/14-12---12----|
G|-----9------------------------|
D|------------------------------|
A|------------------------------|
E|------------------------------|

e|--------|
B|--10----|
G|--------|
D|--------|
A|--------|
E|--------|

[Break]

e|--12---12-------------9----9--|
B|-------------------12---12----|
G|-----9----9-------------------|
D|------------------------------| 3x
A|------------------------------|
E|------------------------------|

e|--12---12-------------9----9--|
B|-------------12/14-12---12----|
G|-----9------------------------|
D|------------------------------|
A|------------------------------|
E|------------------------------|

e|--------|
B|--10----|
G|--------|
D|--------|
A|--------|
E|--------|

[Bridge]

    (Section 1)
e|--12---12-------------9----9--|
B|-------------------12---12----|
G|-----9----9-------------------|
D|------------------------------| 3x
A|------------------------------|
E|------------------------------|

e|--12---12-------------9----10--|
B|-------------12/14-12---12-----|
G|-----9-------------------------|
D|-------------------------------|
A|-------------------------------|
E|-------------------------------|

    (Section 2)
e|--12---12-------------9----9--|
B|-------------------12---12----|
G|-----9----9-------------------|
D|------------------------------| 
A|------------------------------|
E|------------------------------|

e|--12---12-------------9----10--|
B|-------------12/14-12---12-----|
G|-----9-------------------------|
D|-------------------------------|
A|-------------------------------|
E|-------------------------------|

e|--12---12-------------9----9--|
B|-------------------12---12----|
G|-----9----9-------------------|
D|------------------------------| 
A|------------------------------|
E|------------------------------|

e|--12---12-------------9----10--|
B|-------------12/14-12---12-----|
G|-----9-------------------------|
D|-------------------------------|
A|-------------------------------|
E|-------------------------------|
    (Section 3)
e|--12---12-------------9----9--|
B|-------------------12---12----|
G|-----9----9-------------------|
D|------------------------------| 3x
A|------------------------------|
E|------------------------------|

e|--12---12-------------9----10--|
B|-------------12/14-12---12-----|
G|-----9-------------------------|
D|-------------------------------|
A|-------------------------------|
E|-------------------------------|

(Section 4)

e|--12---12-------------9----9--|
B|-------------------12---12----|
G|-----9----9-------------------|
D|------------------------------| 3x
A|------------------------------|
E|------------------------------|

e|--12---12-------------9----9--|
B|-------------12/14-12---12----|
G|-----9------------------------|
D|------------------------------|
A|------------------------------|
E|------------------------------|

e|--------|
B|--10----|
G|--------|
D|--------|
A|--------|
E|--------|            
Submit corrections


        In My Place lessons Hard to play? Try these video lessons and learn fast In My Place lessons
        
↑ Back to top | Tablatures and chords for acoustic guitar and electric guitar, ukulele, drums are parodies/interpretations of the original songs. You may use it for private study, scholarship, research or language learning purposes only