» » »

Coldplay - In My Place Bass

Artists:  A B C D E F G H I J K L M N O P Q R S T U V W X Y Z # 

In My Place Bass

(ver. 1) Click to play this song!
Coldplay
 Rating:
4/5 (4 votes)

 In My Place lessons Tabs too difficult? Try these video lessons and learn fast
 
                
This is a very easy song, enjoy it.


G |--------------------------|--------------------------|
D |--------------------------|--------------------------|
A |--------------------------|--4-4----7-7----7----7----|
E |--5-5----4-4----4----4----|--------------------------|

G |--------------------------|--------------------------|
D |--------------------------|--------------------------|
A |--------------------------|--4-4----7-7----7----7----|
E |--5-5----2-2----2----2----|--------------------------|



chorus 

G |--------------------------|--------------------------|
D |--0---0---0-0-0---0---0---|--7---9---7---6---2---0---|
A |--------------------------|--------------------------|
E |--------------------------|--------------------------|
            
Submit corrections


        In My Place lessons Hard to play? Try these video lessons and learn fast In My Place lessons
        
↑ Back to top | Tablatures and chords for acoustic guitar and electric guitar, ukulele, drums are parodies/interpretations of the original songs. You may use it for private study, scholarship, research or language learning purposes only