» » »

Coldplay - In My Place Ukulele

Artists:  A B C D E F G H I J K L M N O P Q R S T U V W X Y Z # 

In My Place Ukulele

(ver. 1) Click to play this song!
Coldplay
 Rating:
4.4/5 (10 votes)

 In My Place lessons Tabs too difficult? Try these video lessons and learn fast
 
                [Intro riff]
A|-3-3-3---0-3-3-3---0-3-3-3---0-3-3-0-----------------|
E|--1-1-1-3---1-1-1-3---1-1-1-3---1---2s4-2s4-1--------|
C|---------------------------------------------0-------|  x2
G|-2-2-2--2--2-2-2--2--2-2-2--2--2-2--2---2---2--------|

[Verse 1]
F     Dm          Am         C
In my place, in my place, were lines that I couldn't
F             Dm      Am   C
change, I was lost, oh yeah
F     Dm         Am           C
I was lost, I was lost, crossed lines I shouldn't have
F              Dm      Am    C
crossed, I was lost, oh yeah

[Chorus]
Bb         F           C        Bb
Yeah, how long must you wait for him?
Bb         F           C       Bb
Yeah, how long must you pay for him?
Bb         F           C        Bb        C
Yeah, how long must you wait for him, for him

[Intro riff]
A|-3-3-3---0-3-3-3---0-3-3-3---0-3-3-0-----------------|
E|--1-1-1-3---1-1-1-3---1-1-1-3---1---2s4-2s4-1--------|
C|---------------------------------------------0-------|  x2
G|-2-2-2--2--2-2-2--2--2-2-2--2--2-2--2---2---2--------|

[Verse 2]
F     Dm         Am           C
I was scared, I was scared, tired and underprepared
F     Dm        Am    C
But I wait for you
F     Dm         Am
If you go, if you go
        C               F
Leaving me here on my own
     Dm        Am    C
Well I wait for you

[Chorus]
Bb         F           C        Bb
Yeah, how long must you wait for him?
Bb         F           C       Bb
Yeah, how long must you pay for him?
Bb         F           C        Bb        C
Yeah, how long must you wait for him, for him

[Intro riff]
A|-3-3-3---0-3-3-3---0-3-3-3---0-3-3-0-----------------|
E|--1-1-1-3---1-1-1-3---1-1-1-3---1---2s4-2s4-1--------|
C|---------------------------------------------0-------|  x2
G|-2-2-2--2--2-2-2--2--2-2-2--2--2-2--2---2---2--------|
            
Submit corrections


        In My Place lessons Hard to play? Try these video lessons and learn fast In My Place lessons
        
↑ Back to top | Tablatures and chords for acoustic guitar and electric guitar, ukulele, drums are parodies/interpretations of the original songs. You may use it for private study, scholarship, research or language learning purposes only