Home » C » Coldplay »

Coldplay - High Speed Bass

Artists:  A B C D E F G H I J K L M N O P Q R S T U V W X Y Z # 

High Speed Bass

(ver. 3) Click to play this song!
Coldplay
 Rating:
3.5/5 (26 votes)
                Tuning: Standard

Intro (0:00):

G|---------------------------------------------------------------------------|
D|---------------------------------------------------------------------------|
A|---6---1/3----------6---1/3----------6---1/3----------6---1/3--------------|
E|-------------1--3-------------1--3-------------1--3------------------------|

First verse (0:25):

G|---------------------------------------------------------------------------|
D|---------------------------------------------------------------------------|
A|------------------------------/6----------------/6-------3-3-1-------------|
E|---3----3-3------3----3-3-----------3----3-3----------6---------3----3-3---|

G|---------------------------------------------------------------------------|
D|---------------------------------------------------------------------------|
A|--/6-------3-3-1--------------/1-------3-3--------------------------------|
E|--------6---------3----3-3----------1------1--3----3-3--------------------|

Chorus (1:25):

G|---------------------------------------------------------------------------|
D|-------------------------------------5---5---------------------------------|
A|----------------5---5---3---3---3--3---3------------------5---5---3~-------|
E|---6---6---6--6---6--------------------------6---6---6--6---6--------------|

Chorus outro (1:38):

G|---------------------------------------------------------------------------|
D|------------3----------------3----------------3----------------3-----------|
A|--------1-3-----1-3------1-3-----1-3------1-3-----1-3------1-3-------------|
E|---3--3-------------3--3-------------3--3-------------3--3---------3-------|

Second verse (1:50):

G|---------------------------------------------------------------------------|
D|-----------------3----------------3----------------------------3-----------|
A|--/6---------1-3-----1-3------1-3-----/6-------3-3-1-------1-3-----1-3-----|
E|--------3--3-------------3--3---------------6---------3--3-------------3--3|

G|---------------------------------------------------------------------------|
D|------3----------------------------3----------------3----------------------|
A|--1-3-----/6-------3-3-1-------1-3-----1-3------1-3-----/1-------3-3-------|
E|----------------6---------3--3-------------3--3---------------1------1-----|

G|---------------------------------------------------------------------------|
D|-----------3----------------3----------------------------------------------|
A|-------1-3-----1-3------1-3------------------------------------------------|
E|--3--3-------------3--3---------3------------------------------------------|

Second chorus (2:38):

G|---------------------------------------------------------------------------|
D|-------------------------------------5---5---------------------------------|
A|----------------5---5---3---3---3--3---3------------------5---5---3~-------|
E|---6---6---6--6---6--------------------------6---6---6--6---6--------------|

Second chorus outro (2:51):

G|---------------------------------------------------------------------------|
D|---------------3----------------3----------------3----------------3--------|
A|-----------1-3-----1-3------1-3-----1-3------1-3-----1-3------1-3----------|
E|------3--3-------------3--3-------------3--3-------------3--3--------------|

G|---------------------------------------------------------------------------|
D|---------------3----------------3----------------3----------------3--------|
A|--1-3------1-3-----1-3------1-3-----1-3------1-3-----1-3------1-3----------|
E|------3--3-------------3--3-------------3--3-------------3--3---------3----|

Bridge (3:16):

G|---------------------------------------------------------------------------|
D|---------------------------------------------------------------------------|
A|---6---1/3----------6---1/3----------6---1/3----------6---1/3--------------|
E|-------------1--3-------------1--3-------------1--3------------------------|

Outro (3:41):

G|---------------------------------------------------------------------------|
D|------------3----------------3----------------3----------------3-----------|
A|--------1-3-----1-3------1-3-----1-3------1-3-----1-3------1-3-------------|
E|---3--3-------------3--3-------------3--3-------------3--3-----------------|
Repeat until necessary.            
Submit corrections

↑ Back to top | Tablatures and chords for acoustic guitar and electric guitar, ukulele, drums are parodies/interpretations of the original songs. You may use it for private study, scholarship, research or language learning purposes only