» » »

Coldplay - High Speed Tabs

Artists:  A B C D E F G H I J K L M N O P Q R S T U V W X Y Z # 

High Speed Tabs

(ver. 1) Click to play this song!
Coldplay
 Rating:
4/5 (4 votes)

 High Speed lessons Tabs too difficult? Try these video lessons and learn fast
 
                HIGH SPEED

Okay, this was a pain to tab, because guitar2 is very faint, and makes these 
cool underwater style noises. 
The chords are okay, but the tab might need a little more improvisation around. 
Intro: 
Guitar1: 
Bb, C 
Guitar2: 
e|-6-6-5-5-3-3--------8-8-6-6-5-5-3--
b|---------------1-1-------------------- repeat a few times until the G chord is 
played
g|--------------------------------------- 

  G 
e|--------------------------------------
b|-3---3--3----------------------------
g|---4---2--0-------------------------- plays until Chris starts singing 
d|-------------2-3-2------------------- 
a|--------------------3-2-------------- 
e|--------------------------3---------- 
Verse: 
Bb, G repeat over and over until chorus 
e| 
b|-3-3-3--3-3-3--3-3-3--------------------
g|-4-4-4--2-2-2--0-0-0--------------------
d|-------------------------2-3-2------------ repeat until chorus
a|--------------------------------3-2------- 
e|---------------------------------------3-- 
Chorus: 
Bb, C, 
Outro: 
Bb, C repeated over and over.
            
Submit corrections


        High Speed lessons Hard to play? Try these video lessons and learn fast High Speed lessons
        
↑ Back to top | Tablatures and chords for acoustic guitar and electric guitar, ukulele, drums are parodies/interpretations of the original songs. You may use it for private study, scholarship, research or language learning purposes only