Home » C » Coldplay »

Coldplay - High Speed Bass

Artists:  A B C D E F G H I J K L M N O P Q R S T U V W X Y Z # 

High Speed Bass

(ver. 2) Click to play this song!
Coldplay
 Rating:
4/5 (4 votes)
                High Speed

Intro

G |----------------|----------------|----------------|----------------|
D |----------------|----------------|----------------|----------------|
A |6-----------1---|3---------------|6-----------1---|3---------------|
E |----------------|----------1--3--|----------------|----------1--3--|

G |----------------|----------------|----------------|----------------||
D |----------------|----------------|----------------|----------------||
A |6-----------1---|3---------------|6-----------1---|3---------------||
E |----------------|----------1--3--|----------------|----------------||

G |----------------|----------------|----------------|----------------|
D |----------------|----------------|----------------|----------------|
A |----------------|----------------|----------------|----------------|
E |3--------------3|3--------------3|3--------------3|3---------------|


Verse 1 

G |----------------|--------|----------------|----------------|
D |----------------|--------|----------------|----------------|
A |6~--------------|--------|----------------|----------------|
E |----------------|--------|3--------------3|3---------------|

G |----------------|----------------|----------------|----------------|
D |----------------|----------------|----------------|----------------|
A |6~--------------|--------3-3--1--|----------------|----------------|
E |----------------|-------6--------|3--------------3|3---------------|

G |----------------|----------------|----------------|----------------|
D |----------------|----------------|----------------|----------------|
A |6~--------------|--------3-3--1--|----------------|----------------|
E |----------------|-------6--------|3--------------3|3---------------|

G |----------------|----------------|----------------|----------------||
D |----------------|----------------|----------------|----------------||
A |1~--------------|--------3-3-----|----------------|----------------||
E |----------------|-------1-----1--|3--------------3|3---------------||


Chorus

G |----------------|----------------|----------------|----------------|
D |----------------|-------------5-5|----------------|----------------|
A |-------------5-5|3---3--3--3---3-|-------------5-5|3---------------|
E |6---6--6--6---6-|----------------|6---6--6--6---6-|----------------|

G |----------------|----------------|----------------|----------------||
D |------3---------|------3---------|------3---------|------3---------||
A |----13--------13|----13--------13|----13--------13|----13----------||
E |3-3-------------|3-3-------------|3-3-------------|3-3---------3---||



Verse 2 

G |----------------|--------|----------------|----------------|
D |----------------|--------|----------------|----------------|
A |6~--------------|--------|----------------|----------------|
E |----------------|--------|3--------------3|3---------------|

G |----------------|----------------|----------------|----------------|
D |----------------|----------------|----------------|----------------|
A |6~--------------|--------3-3--1--|----------------|----------------|
E |----------------|-------6--------|3--------------3|3---------------|

G |----------------|----------------|----------------|----------------|
D |----------------|----------------|----------------|----------------|
A |6~--------------|--------3-3--1--|----------------|----------------|
E |----------------|-------6--------|3--------------3|3---------------|

G |----------------|----------------|----------------|----------------||
D |----------------|----------------|----------------|----------------||
A |1~--------------|--------3-3-----|----------------|----------------||
E |----------------|-------1-----1--|3--------------3|3---------------||


Chorus

G |----------------|----------------|----------------|----------------|
D |----------------|-------------5-5|----------------|----------------|
A |-------------5-5|3---3--3--3---3-|-------------5-5|3---------------|
E |6---6--6--6---6-|----------------|6---6--6--6---6-|----------------|

G |----------------|----------------|----------------|----------------|
D |------3---------|------3---------|------3---------|------3---------|
A |----13--------13|----13--------13|----13--------13|----13--------13|
E |3-3-------------|3-3-------------|3-3-------------|3-3-------------|

G |----------------|----------------|----------------|----------------||
D |------3---------|------3---------|------3---------|------3---------||
A |----13--------13|----13--------13|----13--------13|----13----------||
E |3-3-------------|3-3-------------|3-3-------------|3-3---------3---||


Bridge 
G |----------------|----------------|----------------|----------------|
D |----------------|----------------|----------------|----------------|
A |6-----------1---|3---------------|6-----------1---|3---------------|
E |----------------|----------1--3--|----------------|----------1--3--|

G |----------------|----------------|----------------|----------------||
D |----------------|----------------|----------------|----------------||
A |6-----------1---|3---------------|6-----------1---|3---------------||
E |----------------|----------1--3--|----------------|----------------||


Outro 

G |----------------|----------------|----------------|----------------|
D |------3---------|------3---------|------3---------|------3---------|
A |----13--------13|----13--------13|----13--------13|----13--------13|
E |3-3-------------|3-3-------------|3-3-------------|3-3-------------|

G |----------------|----------------|----------------|----------------|
D |------3---------|------3---------|------3---------|------3---------|
A |----13--------13|----13--------13|----13--------13|----13--------13|
E |3-3-------------|3-3-------------|3-3-------------|3-3-------------|

G |----------------|----------------||
D |------3---------|------3---------||
A |----13--------13|----13--------13||
E |3-3-------------|3-3-------------||
            
Submit corrections

↑ Back to top | Tablatures and chords for acoustic guitar and electric guitar, ukulele, drums are parodies/interpretations of the original songs. You may use it for private study, scholarship, research or language learning purposes only