Home » C » Coldplay »

Coldplay - Every Teardrop Is A Waterfall Bass

Artists:  A B C D E F G H I J K L M N O P Q R S T U V W X Y Z # 

Every Teardrop Is A Waterfall Bass

(ver. 3) Click to play this song!
Coldplay
 Rating:
4/5 (4 votes)
                No bass until 1:07
"I turn the music up"
G|----------------------------------|
D|----------------------------------|
A|-5~--------------4~---------------| x3
E|----------------------------------|

G|----------------------------------|
D|----------------------------------|
A|-----------------5~---------------|
E|-2~-------------------------------|

"As we saw...this light"
G|-----------------------------------------------------------------------|
D|-----------------------------------------------------------------------|
A|-5-x-5-5-x-5-x-5-5-x-4-x-4-4-x-4-x-4-4-----------------5-5-5-5-5-5-5-5-| x2
E|---------------------------------------2-2-2-2-2-2-2-2-----------------|

"It's a waterfall"
G|--------------------|
D|--------------------|
A|12-12-12-12-5-5-5-5-| x4 (it's 12 not 1&2)
E|--------------------|

"But still I’ll raise"
G|--------------------|
D|--------------------|
A|-4~-------5~--------|
E|--------------------|

And then,
G|--------------------|
D|--------------------|
G|12-12-12-12-5-5-5-5-| x4
E|--------------------|

Now fun bass part
G|------------------------------------------------------|
D|---4-7---7-------4-7---7------------------------------|
A|-5-----5---5---5-----5---5-----4-7---7-------4-7---7--| x6
E|-----------------------------5-----5---5---5-----5--5-|

x= muted note
            
Submit corrections

↑ Back to top | Tablatures and chords for acoustic guitar and electric guitar, ukulele, drums are parodies/interpretations of the original songs. You may use it for private study, scholarship, research or language learning purposes only