Home » C » Coldplay »

Coldplay - Every Teardrop Is A Waterfall Bass

Artists:  A B C D E F G H I J K L M N O P Q R S T U V W X Y Z # 

Every Teardrop Is A Waterfall Bass

(ver. 2) Click to play this song!
Coldplay
 Rating:
3.6/5 (5 votes)
                -----------------------------------------------------------------------------
		  Coldplay - Every Teardrop Is A Waterfall
-----------------------------------------------------------------------------

Tuning: Standard

It starts with the drums , (1:07)...

I turn the music up, I got my records on, From underneath the rubble sing a rebel song ...

G|---------------------------------------------------------------|
D|---------------------------------------------------------------|
A|---------------------------------------------------------------|    X2
E|5-5-5-5-5-5-5-5-5-5-5-5-5-5-5-5-7-7-7-7-7-7-7-7-7-7-7-7-7-7-7-7|

Maybe I'm in the black, maybe I'm on my knees ...

G|---------------------------------------------------------------|
D|---------------------------------------------------------------|
A|7-7-7-7-7-7-7-7-7-7-7-7-7-7-7-7-5-5-5-5-5-5-5-5-5-5-5-5-5-5-5-5|
E|---------------------------------------------------------------|

But my heart is beating and my pulses start, Cathedrals in my heart ...

G|---------------------------------------------------------------|
D|---------------------------------------------------------------|
A|---------------------------------------------------------------|
E|5-5-5-5-5-5-5-5-5-5-5-5-5-5-5-5-7-7-7-7-7-7-7-7-5-5-5-5-5-5-5-5|

And we saw, oh, this light ... 

G|---------------------------------------------------------------|
D|---------------------------------------------------------------|
A|5-5-5-5-5-5-5-5-5-5-5-5-5-5-5-5-4-4-4-4-4-4-4-4-4-4-4-4-4-4-4-4|
E|---------------------------------------------------------------|

I swear you, emerge blinking into ...

G|---------------------------------------------------------------|
D|---------------------------------------------------------------|
A|---------------------------------------------------------------|
E|5-5-5-5-5-5-5-5-7-7-7-7-7-7-7-7-5-5-5-5-5-5-5-5-5-5-5-5-5-5-5-5|

as we soar walls ...

G|---------------------------------------------------------------|
D|---------------------------------------------------------------|
A|5-5-5-5-5-5-5-5-5-5-5-5-5-5-5-5-4-4-4-4-4-4-4-4-4-4-4-4-4-4-4-4|
E|---------------------------------------------------------------|

every siren is a symphony ...

G|---------------------------------------------------------------|
D|---------------------------------------------------------------|
A|---------------------------------------------------------------|
E|5-5-5-5-5-5-5-5-7-7-7-7-7-7-7-7-5-5-5-5-5-5-5-5-5-5-5-5-5-5-5-5|

GUITAR SOLO:

G|---------------------------------------------------------------|
D|---------------------------------------------------------------|
A|0-0-0-0-0-0-0-0-5-5-5-5-5-5-5-5-0-0-0-0-0-0-0-0-2-2-2-2-2-2-2-2|  X2
E|---------------------------------------------------------------|

So you can hurt, hurt me bad ...

G|---------------------------------------------------------------|
D|---------------------------------------------------------------|
A|2-2-2-2-2-2-2-2-2-2-2-2-2-2-2-2-0-0-0-0-0-0-0-0-0-0-0-0-0-0-0-0|
E|---------------------------------------------------------------|

G|---------------------------------------------------------------|
D|---------------------------------------------------------------|
A|7-7-7-7-7-7-7-7-7-7-7-7-7-7-7-7-0-0-0-0-0-0-0-0-0-0-0-0-0-0-0-0|
E|---------------------------------------------------------------|

HARD DRUMS INTRO:

G|---------------------------------------------------------------|
D|---------------------------------------------------------------|
A|---------------------------------------------------------------|  X6
E|5-5-5-5-5-5-5-5-4-4-4-4-4-4-4-4-5-5-5-5-5-5-5-5-7-7-7-7-4-4-4-4|


Thanks...


=============================================================================
| /  slide up
| \  slide down
| h  hammer-on
| p  pull-off
| ~  vibrato
| +  harmonic
| x  Mute note
=============================================================================
            
Submit corrections

↑ Back to top | Tablatures and chords for acoustic guitar and electric guitar, ukulele, drums are parodies/interpretations of the original songs. You may use it for private study, scholarship, research or language learning purposes only