Home » C » Coldplay »

Coldplay - Every Teardrop Is A Waterfall Bass

Artists:  A B C D E F G H I J K L M N O P Q R S T U V W X Y Z # 

Every Teardrop Is A Waterfall Bass

(ver. 1) Click to play this song!
Coldplay
 Rating:
4/5 (4 votes)
                
Play at the tempo of the bass drum
Come in a 1:08
"I turn the music up.."
G|---------------------------------|
D|---------------------------------| 
A|-5-5-5-5-5-5-5-5-----------------| x3
E|-----------------5-5-5-5-5-5-5-5-|

G|---------------------------------|
D|---------------------------------|
A|-----------------5-5-5-5-5-5-5-5-|
E|-2-2-2-2-2-2-2-2-----------------|

"And we saw this light.."
G|-----------------------------------------------------------------|
D|-----------------------------------------------------------------|
A|-5-5-5-5-5-5-5-5---------------------------------5-5-5-5-5-5-5-5-| x2
E|-----------------5-5-5-5-5-5-5-5-2-2-2-2-2-2-2-2-----------------|

"It's a waterfall.."
G|-----------------|
D|-----------------|
A|---------5-5-5-5-| x4
E|-5-5-5-5---------|

Pause until
"But still I"ll raise.."
G|-------|
D|-------|
A|-4~-5~-|
E|-------|

G|-----------------|
D|-----------------|
A|---------5-5-5-5-| x4
E|-5-5-5-5---------|

Now for the fun instrumental part
G|------------------------------------------------------|
D|---4-7---7-------4-7---7------------------------------|
A|-5-----5---5---5-----5---5-----4-7---7-------4-7---7--| x6
E|-----------------------------5-----5---5---5-----5--5-|
            
Submit corrections

↑ Back to top | Tablatures and chords for acoustic guitar and electric guitar, ukulele, drums are parodies/interpretations of the original songs. You may use it for private study, scholarship, research or language learning purposes only