» » »

Coldplay - Don T Panic Tabs

Artists:  A B C D E F G H I J K L M N O P Q R S T U V W X Y Z # 

Don T Panic Tabs

(ver. 3) Click to play this song!
Coldplay
 Rating:
4/5 (4 votes)

 Don T Panic lessons Tabs too difficult? Try these video lessons and learn fast
 
                
Band =Coldplay
Song =Don’t Panic


DON\\\\\\\'T PANIC   (parachutes)

Am: x02210
C:  x32010
F:  133210 or x03211

INTRO
(play low E with thumb for F chord)

e--0--0-0--0---0--0-0---
B--1--1-1--0p1-1--1-1---
G--2--2-2--0p2-2--2-2---
D--3--3-3--3------3-3---
A--3--3-3--3------3-3---
E--1--1-1--1------1-1---



Am               C                      F          
Oh, sinking like stones, all that we\\\\\\\'ve fought for

Am                     C                    F
Oh, these places we\\\\\\\'ve grown, all of us are done for

Guitar2:
     Dm                                                  F 
e|-5-5-5-5-7-7-7-7-8-8-8----------------------------------
b|--------------------------5-5-5-5-5-5-5-5-5-8-8-6-6-5---  
g|--------------------------------------------------------  
            And we live in a beautiful world

C       
Yeah we do yeah we do

Dm                                         F 
And we live in a beautiful world

Am               C                         F
Oh, sinking like stones, all that we\\\\\\\'ve fought for

Am                     C                   F
Oh, these places we\\\\\\\'ve grown, all of us are done for

Dm                                         F 
And we live in a beautiful world

C
Yeah we do yeah we do

Dm                                         F 
And we live in a beautiful world

Piano: 
Am                  C                                    F
e|-0-3-1-0------3-1-0-------0-----0-3-1-3----3-1-0-----0----
b|----------1-----------1-3--1------------1---------1-3---1- x2
g|---------------------------------------------------------- 

Dm                                         F 
And we live in a beautiful world

C
Yeah we do yeah we do

Dm                                         F 
And we live in a beautiful world

Solo:
Am                         C                                        F
e|-12----12----12----12----12----12----12----12------------------------
b|----13----13----13----13----13----13----13----13--5-5-5-5-8-8-6-6-5-- X2
g|---------------------------------------------------------------------


Am             C                             F
Oh, all that I know, there\\\\\\\'s nothing here to run from

Am                 C                      F
Cos yet, everybody here\\\\\\\'s got somebody to lean on...



Enjoy

cheers
            
Submit corrections


        Don T Panic lessons Hard to play? Try these video lessons and learn fast Don T Panic lessons
        
↑ Back to top | Tablatures and chords for acoustic guitar and electric guitar, ukulele, drums are parodies/interpretations of the original songs. You may use it for private study, scholarship, research or language learning purposes only