» » »

Coldplay - Don T Panic Tabs

Artists:  A B C D E F G H I J K L M N O P Q R S T U V W X Y Z # 

Don T Panic Tabs

(ver. 1) Click to play this song!
Coldplay
 Rating:
4.2/5 (5 votes)

 Don T Panic lessons Tabs too difficult? Try these video lessons and learn fast
 
                Artist - Coldplay 
 Track - Don't Panic
 Album - Parachutes
 
 ===========================================================
 
 Standard Tuning - E A D G B E

 Use flanger and delay for lead

 ============================================================================================================================

 CHORDS:

 Fmaj7 = 13321o |
 Am    = xo221o |
 C     = x32o1o |
 Dm    = xxo231 |
 G6    = 35543o |
 ---------------

 INTRO:
 
 Lead
                   Fmaj7
 |--0--x--0---0--x--0--0--0---0--x--0--0--|
 |--1--x--0h1-1--x--1--1--0h1-1--x--1--1--|
 |--2--x--0h2-2--x--2--2--0h2-2--x--2--2--|
 |--3--x--3---3--x--3--3--3---3--x--3--3--| x2
 |--3--x--3---3--x--3--3--3---3--x--3--3--|
 |--1--x--1---------1-----1---------1--1--|

 Rhythm enters the second time playing the same thing

                   Fmaj7
 |--0--x--0---0--x--0--0--0---0--x--0--0--|
 |--1--x--0h1-1--x--1--1--0h1-1--x--1--1--|
 |--2--x--0h2-2--x--2--2--0h2-2--x--2--2--|
 |--3--x--3---3--x--3--3--3---3--x--3--3--| x1
 |--3--x--3---3--x--3--3--3---3--x--3--3--|
 |--1--x--1---------1-----1---------1--1--|

 VERSE: Lead guitar strum bar chord version of each chord at beginning of 
each bar.
        When playing Fmaj7 play it like in the intro

 Am                   C                     Fmaj7
 Bones sinking like stones, all that we've fought for,
 Am                   C                 Fmaj7
 Homes places we've grown all of us are done for,

 CHORUS:

 Lead

    Dm                            Am               G6          Dm                     
 
|--5-5-5-5-5-5-5-5-7-7-7-8-8-8-8---------------------15----15\5-5-5-5-5-5-5-5-7-7-7-8-8-8-8-
 |--------------------------------5-5-5-5-5-5-5/10/13----13----------------------------------
 |-------------------------------------------------------------------------------------------
 |-------------------------------------------------------------------------------------------
 |-------------------------------------------------------------------------------------------
 |-------------------------------------------------------------------------------------------

    Fmaj7
 |------5-----0-----5-----0--|
 |--5h6---5h6---5h6---5h6----|
 |---------------------------|
 |---------------------------|
 |---------------------------|
 |---------------------------|

 Dm                            Am      G6                  Dm
 We live in a beautiful world,         yeah we do, yeah we do
 Dm                            Fmaj7
 We live in a beautiful world

 VERSE 2: Same as verse 1

 Bones sinking like stones, all that we've fought for,
 Homes places we've grown all of us are done for,


 CHORUS 2: Same as chorus 1

 We live in a beautiful world, yeah we do, yeah we do
 We live in a beautiful world,

 INTERLUDE 1:

 Piano transcribed for guitar

    Am    C         Fmaj7   Am    C           Fmaj7
 |-------------------------------------------------|
 |--5-8-6-5-5-8-6-5-3-1-----5-8-6-5-5-8-6-5-6-5-1--|
 |-------------------------------------------------|
 |-------------------------------------------------|
 |-------------------------------------------------|
 |-------------------------------------------------|

 CHORUS 3: Same as first two chorus'

 We live in a beautiful world, yeah we do, yeah we do
 We live in a beautiful world,

 INTERLUDE 2:

 Guitar 2

    Am                      C                      Fmaj7
 |-------12----12----12----12----12----12----12------------5-----0-----5-----0--|
 |--5/13----13----13----13----13----13----13----13\\\--5h6---5h6---5h6---5h6----|
 |------------------------------------------------------------------------------|
 |------------------------------------------------------------------------------| 
x2
 |------------------------------------------------------------------------------|
 |------------------------------------------------------------------------------|

 CHORUS 4: Same as first three chorus'

 OUTRO:

 Am              C                            Fmaj7
 Oh, all that I know, there's nothing here to run from,
 Am                      C                     Fmaj7
 Yeah, 'cause everybody here's got somebody to lean on,

 ===========================================================
            
Submit corrections


        Don T Panic lessons Hard to play? Try these video lessons and learn fast Don T Panic lessons
        
↑ Back to top | Tablatures and chords for acoustic guitar and electric guitar, ukulele, drums are parodies/interpretations of the original songs. You may use it for private study, scholarship, research or language learning purposes only