Home » C » Coldplay »

Coldplay - Don T Panic Bass

Artists:  A B C D E F G H I J K L M N O P Q R S T U V W X Y Z # 

Don T Panic Bass

(ver. 1) Click to play this song!
Coldplay
 Rating:
4/5 (4 votes)
                (2)
Coldplay – Don’t Panic
Album – Parachutes 


Guitar intro x4

Verse
G------------------------------------------------------
D------------------------------------------------------
A-0---0-0-0-2---3---3-3-3-3/8---8—-8—-8~--8—-8—-8------
E---------------------------------------------------8-7

G---------------------------------------------------------
D---------------------------------------------------------
A-0---0-0-0-2---3---3-3-3-3/8---8—-8—-8~--8—-8—-8--10-8-7
E---------------------------------------------------------


Chorus
G------------------------------------------------------------
D-------------------------------------------------5—-5—-5-5-5
A-5----5-5-5---5—-5-5---5---5-5-5----------------------------
E-----------------------------------5---5-5-5-5-5------------

G------------------------------------------------------------------
D------------------------------------------------------------------
A-5----5-5-5---5—-5-5---5---5-5-5----------------------------------
E-----------------------------------1----1-1-1---1---1----1---1---1

Verse

Chorus

Verse

Outro Verse
G------------------------------------------------------
D------------------------------------------------------
A-0---0-0-0-2---3---3-3-3-3/8---8—-8—-8~--8—-8—-8------
E---------------------------------------------------8-7

G----------------------------------
D----------------------------------
A-0---0-0-0-2---3---3-3-3-3/8---8~~
E----------------------------------
            
Submit corrections

↑ Back to top | Tablatures and chords for acoustic guitar and electric guitar, ukulele, drums are parodies/interpretations of the original songs. You may use it for private study, scholarship, research or language learning purposes only