» » »

Coldplay - Birds Tabs

Artists:  A B C D E F G H I J K L M N O P Q R S T U V W X Y Z # 

Birds Tabs

(ver. 1) Click to play this song!
Coldplay
 Rating:
2.2/5 (27 votes)

 Birds  lessons Tabs too difficult? Try these video lessons and learn fast
 
                Tuning: standard

intro

e|--------------------------------------------------------------------------------------|
B|-----12-13----12-13-----12-13----12-13-15----12-13----12-13-----12-13----12-13-15-----|
G|--12-------12--------12-------12----------12-------12--------12-------12----------12--| x4
D|--------------------------------------------------------------------------------------|
A|--------------------------------------------------------------------------------------|
E|--------------------------------------------------------------------------------------|

chorus 1

e|--------------------12----------------------12-----------------------------|
B|--13----12----13----12----13----12----13----12-----------------------------|
G|--14----14----14----14----14----14----14----14-----------------------------|
D|--15----15----15----15----15----15----15----15-----------------------------|
A|---------------------------------------------------------------------------|
E|---------------------------------------------------------------------------|

afterwards

e|--------------------------------------------------------------------------------------|
B|-----12-13----12-13-----12-13----12-13-15----12-13----12-13-----12-13----12-13-15-----|
G|--12-------12--------12-------12----------12-------12--------12-------12----------12--| x4
D|--------------------------------------------------------------------------------------|
A|--------------------------------------------------------------------------------------|
E|--------------------------------------------------------------------------------------|

chorus 2

e|--------------------12----------------------12-----------------------------|
B|--13----12----13----12----13----12----13----12-----------------------------|
G|--14----14----14----14----14----14----14----14-----------------------------|
D|--15----15----15----15----15----15----15----15-----------------------------|
A|---------------------------------------------------------------------------|
E|---------------------------------------------------------------------------|

afterwards

e|--------------------------------------------------------------------------------------|
B|-----12-13----12-13-----12-13----12-13-15----12-13----12-13-----12-13----12-13-15-----|
G|--12-------12--------12-------12----------12-------12--------12-------12----------12--| x8
D|--------------------------------------------------------------------------------------|
A|--------------------------------------------------------------------------------------|
E|--------------------------------------------------------------------------------------|

outro (2:49)
                                                                               
e|---------------------------------------------------------------------------|  
B|----------------------------------6-6-6-6-6-6-6-6-6-6-6-6-6-6-6-6----------|
G|--5-5-5-5-5-5-5-5-5-5-5-5-5-5-5-5-7-7-7-7-7-7-7-7-7-7-7-7-7-7-7-7----------|
D|--5-5-5-5-5-5-5-5-5-5-5-5-5-5-5-5-7-7-7-7-7-7-7-7-7-7-7-7-7-7-7-7----------|
A|--3-3-3-3-3-3-3-3-3-3-3-3-3-3-3-3-5-5-5-5-5-5-5-5-5-5-5-5-5-5-5-5----------|
E|---------------------------------------------------------------------------|

e|---------------------------------------------------------------------------|
B|--5-5-5-5-5-5-5-5-5-5-5-5-5-5-5-5-3-3-3-3-3-3-3-3-3-3-3-3-3-3-3-3----------|
G|--5-5-5-5-5-5-5-5-5-5-5-5-5-5-5-5-5-5-5-5-5-5-5-5-5-5-5-5-5-5-5-5----------| x6
D|--5-5-5-5-5-5-5-5-5-5-5-5-5-5-5-5-5-5-5-5-5-5-5-5-5-5-5-5-5-5-5-5----------|
A|--3-3-3-3-3-3-3-3-3-3-3-3-3-3-3-3-3-3-3-3-3-3-3-3-3-3-3-3-3-3-3-3----------|
E|---------------------------------------------------------------------------|

end on

e|---------------------------------------------------------------------------|
B|----------------------------------6-6-6-6-6-6-6-6-6-6-6-6-6-6-6-6-5--------|
G|--5-5-5-5-5-5-5-5-5-5-5-5-5-5-5-5-7-7-7-7-7-7-7-7-7-7-7-7-7-7-7-7-5--------|
D|--5-5-5-5-5-5-5-5-5-5-5-5-5-5-5-5-7-7-7-7-7-7-7-7-7-7-7-7-7-7-7-7-5--------|
A|--3-3-3-3-3-3-3-3-3-3-3-3-3-3-3-3-5-5-5-5-5-5-5-5-5-5-5-5-5-5-5-5-3--------|
E|---------------------------------------------------------------------------|
            
Submit corrections


        Birds  lessons Hard to play? Try these video lessons and learn fast Birds  lessons
        
↑ Back to top | Tablatures and chords for acoustic guitar and electric guitar, ukulele, drums are parodies/interpretations of the original songs. You may use it for private study, scholarship, research or language learning purposes only