» » »

Coldplay - Birds Tabs

Artists:  A B C D E F G H I J K L M N O P Q R S T U V W X Y Z # 

Birds Tabs

(ver. 2) Click to play this song!
Coldplay
 Rating:
4.3/5 (23 votes)

 Birds  lessons Tabs too difficult? Try these video lessons and learn fast
 
                [Intro]
e|--------------------------------------------|
B|-----13-p-12----13-p-12----12-13-p-12----15-|
G|--12---------12---------12------------12----|
D|--------------------------------------------| 8x
A|--------------------------------------------|
E|--------------------------------------------|

=============================================================================================================

[Verse]
Been standing in the corner..... (0:23)
e|--------------|-20----15----|
B|--17----------|-------------|
G|--------------|-------------|
D|--------------|-------------| 8x
A|--------------|-------------|
E|--------------|-------------|

=============================================================================================================

[Refrain]
It's a fools gold thunder..... (1:00)
e|-8--|-8--|-8--|-8--|-8--|-8--|-8--|----|
B|-10-|-13-|-13-|-10-|-10-|-13-|-13-|-15-|
G|-10-|-14-|-14-|-10-|-10-|-14-|-14-|-16-|
D|----|-15-|-15-|----|----|-15-|-15-|-17-|
A|----|----|----|----|----|----|----|----|
E|----|----|----|----|----|----|----|----|

=============================================================================================================

[Chorus]
Come on rage with me..... (1:18)
e|--------------------------------------------|
B|-----13-p-12----13-p-12----12-13-p-12----15-|
G|--12---------12---------12------------12----|
D|--------------------------------------------| 8x
A|--------------------------------------------|
E|--------------------------------------------|

=============================================================================================================

[Verse]
(1:36)
e|--------------|-20----15----|
B|--17----------|-------------|
G|--------------|-------------|
D|--------------|-------------| 4x
A|--------------|-------------|
E|--------------|-------------|

=============================================================================================================

[Refrain]
Come on and raise it..... (1:54)
e|-8--|-8--|-8--|-8--|-8--|-8--|-8--|----|
B|-10-|-13-|-13-|-10-|-10-|-13-|-13-|-15-|
G|-10-|-14-|-14-|-10-|-10-|-14-|-14-|-16-|
D|----|-15-|-15-|----|----|-15-|-15-|-17-|
A|----|----|----|----|----|----|----|----|
E|----|----|----|----|----|----|----|----|

=============================================================================================================

[Chorus]
Away with me..... (2:12)
e|--------------------------------------------|
B|-----13-p-12----13-p-12----12-13-p-12----15-|
G|--12---------12---------12------------12----|
D|--------------------------------------------| 16x
A|--------------------------------------------|
E|--------------------------------------------|

=============================================================================================================

[Outro]
(2:48)
e|-------------------------15----15----------|    e|--15----15----------|
B|--15-b-16-br-15-15-15-15-17-15-17-15-15-15-|    B|--17-15-17-15-15-15-|
G|-------------------------------------------|    G|--------------------|
D|-------------------------------------------| 3x D|--------------------| 2x  Repeat this line in total  
A|-------------------------------------------|    A|--------------------|     6 times.
E|-------------------------------------------|    E|--------------------|

e|-------------------------15----15----------|    
B|--15-b-16-br-15-15-15-15-17-15-17-15-15-15-|    
G|-------------------------------------------|   
D|-------------------------------------------| 2x 
A|-------------------------------------------|    
E|-------------------------------------------|                
Submit corrections


        Birds  lessons Hard to play? Try these video lessons and learn fast Birds  lessons
        
↑ Back to top | Tablatures and chords for acoustic guitar and electric guitar, ukulele, drums are parodies/interpretations of the original songs. You may use it for private study, scholarship, research or language learning purposes only