» » »

Coldplay - Birds Tabs

Artists:  A B C D E F G H I J K L M N O P Q R S T U V W X Y Z # 

Birds Tabs

(ver. 3) Click to play this song!
Coldplay
 Rating:
4.3/5 (21 vote)

 Birds  lessons Tabs too difficult? Try these video lessons and learn fast
 
                Intro
e|-----0---0-0-|-----0---2--|
B|---4---------|---4--------|
G|-4-----4-----|-4-----4----| x8
D|-------------|------------|
A|-------------|------------|
E|-------------|------------|

Verse
e|---9--|-11--9--|--7--|-11--9--|
B|---0--|--------|--0--|--------|
G|--11--|--------|--9--|--------| x4
D|------|--------|-----|--------|
A|------|--------|-----|--------|
E|------|--------|-----|--------|

Prechorus
e|--0--|--0--|
B|--2--|--0--|
G|--2--|--1--| x4
D|-----|-----|
A|-----|-----|
E|-----|-----|

Chorus
e|-----0---0-0-|-----0---2--|
B|---4---------|---4--------|
G|-4-----4-----|-4-----4----| x8
D|-------------|------------|
A|-------------|------------|
E|-------------|------------|

Verse 2:
e|---9--|-11--9--|--7--|-11--9--|
B|---0--|--------|--0--|--------|
G|--11--|--------|--9--|--------| x2
D|------|--------|-----|--------|
A|------|--------|-----|--------|
E|------|--------|-----|--------|

Prechorus 2
e|--0--|--0--|
B|--2--|--0--|
G|--2--|--1--| x4
D|-----|-----|
A|-----|-----|
E|-----|-----|

Chorus 2
e|-----0---0-0-|-----0---2--|
B|---4---------|---4--------|
G|-4-----4-----|-4-----4----| x16
D|-------------|------------|
A|-------------|------------|
E|-------------|------------|

Outro                                
e|--------------|---------------|      
B|-7--7b9r7-5-5-|---5-7~---7-7~-|      
G|--------------|-6------6------|    
D|--------------|---------------|      
A|--------------|---------------|      
E|--------------|---------------|

e|--------------|---------------|      
B|-7--7b9r7-5-5-|---5-7~---7-7~-|      
G|--------------|-6------6------|    
D|--------------|---------------|      
A|--------------|---------------|      
E|--------------|---------------|      
                                   x6.5
e|--------------|---------------|      
B|-7--7b9r7-5-5-|---5-7~---7-7~-|      
G|--------------|-6------6------|    
D|--------------|---------------|      
A|--------------|---------------|      
E|--------------|---------------|          
                                        
e|-----------------------------|       
B|---5-7~---7-7~---5-7~---5-7~-|       
G|-6------5------6------6------|       
D|-----------------------------|       
A|-----------------------------|       
E|-----------------------------|       
                                                
Submit corrections


        Birds  lessons Hard to play? Try these video lessons and learn fast Birds  lessons
        
↑ Back to top | Tablatures and chords for acoustic guitar and electric guitar, ukulele, drums are parodies/interpretations of the original songs. You may use it for private study, scholarship, research or language learning purposes only