» » »

Coldplay - Atlas Tabs

Artists:  A B C D E F G H I J K L M N O P Q R S T U V W X Y Z # 

Atlas Tabs

(ver. 3) Click to play this song!
Coldplay
 Rating:
4/5 (4 votes)

 Atlas lessons Tabs too difficult? Try these video lessons and learn fast
 
                He does it right I think.
It's my first tab btw :)

Correct version:
e|-16-16-16-16-16-14-----------------------|
B|-------------------17-16-12/14-17-16-17\-|
G|-----------------------------------------|
D|-----------------------------------------|
A|-----------------------------------------|
E|-----------------------------------------|

e|-16-16-16-16-16-18-14-16-----------------|
B|-------------------------12/14-17-16-17\-|
G|-----------------------------------------|
D|-----------------------------------------|
A|-----------------------------------------|
E|-----------------------------------------|

e|-16-16-16-16-16-14-----------------------|-------------------------------|
B|-------------------17-16-12/14-16-14-16--|-12p11-12p11-12-14-12p11-12-14-|
G|-----------------------------------------|-------------------------------|
D|-----------------------------------------|-------------------------------|
A|-----------------------------------------|-------------------------------|
E|-----------------------------------------|-------------------------------|

Last piece can be done this way too:
e|-------------------------|
B|-12p11-12-14-12p11-12-14-|
G|-------------------------|
D|-------------------------|
A|-------------------------|
E|-------------------------|

/  slide up
\  slide down
h  hammer on
p  pull of
            
Submit corrections


        Atlas lessons Hard to play? Try these video lessons and learn fast Atlas lessons
        
↑ Back to top | Tablatures and chords for acoustic guitar and electric guitar, ukulele, drums are parodies/interpretations of the original songs. You may use it for private study, scholarship, research or language learning purposes only