Home » C » Coldplay »

Coldplay - Atlas Bass

Artists:  A B C D E F G H I J K L M N O P Q R S T U V W X Y Z # 

Atlas Bass

(ver. 1) Click to play this song!
Coldplay
 Rating:
4/5 (4 votes)
                -------------------------------------------------------------------------------
                             Coldplay - Atlas
-------------------------------------------------------------------------------
Tuning: Standard

Intro ( "to explode" 1:02 )
G|---------------------------------------------|
D|---------------------------------------------|
A|------------4---4----4------------2---2----2-|
E|-2---2----2------------0---0----0------------|

interlude
G|--------------------------------------|
D|--------------------------------------|
A|-0---------2----1----4----3----6----4-|
E|------4-------------------------------|

G|----------------------------------------|
D|----------------------------------------|
A|-9-7---9----7--6--4-------------------2-|
E|-----------------------5----4----5------|

Verse ( until The End . )
G|---------------------------------------------------------------------------------|
D|---------------------------------------------------------------------------------|
A|---------------------4--4--4--4-4--4-4-4---------------------2--2--2--2-2--2-2-2-|
E|-2--2--2--2-2--2-2-2---------------------0--0--0--0-0--0-0-0---------------------|

Thanks For watching this :)
Remember to give attention to the time of the song and subscribe to my you tube channel 
for cool videos :D

| /  slide up
| \  slide down
| h  hammer-on
| p  pull-off
| ~  vibrato
| +  harmonic
| x  Mute note
===============================================================================
            
Submit corrections

↑ Back to top | Tablatures and chords for acoustic guitar and electric guitar, ukulele, drums are parodies/interpretations of the original songs. You may use it for private study, scholarship, research or language learning purposes only