» » »

Coldplay - Atlas Tabs

Artists:  A B C D E F G H I J K L M N O P Q R S T U V W X Y Z # 

Atlas Tabs

(ver. 2) Click to play this song!
Coldplay
 Rating:
4/5 (4 votes)

 Atlas lessons Tabs too difficult? Try these video lessons and learn fast
 
                -------------------------------------------------------------------------------
                               ATLAS - Coldplay
-------------------------------------------------------------------------------

Tuning: Standard

e|-------------16-16-16-14-11-------------11-12-11-12-----------|
B|----------------------------14-11-12-14-----------------------|
G|--------------------------------------------------------------|
D|--------------------------------------------------------------|
A|--------------------------------------------------------------|
E|--------------------------------------------------------------|


e|--------------16-16-16-16-16-16/18-14-16----------------------|
B|-----------------------------------------14-16-14-16-17-16-17-|
G|--------------------------------------------------------------|
D|--------------------------------------------------------------|
A|--------------------------------------------------------------|
E|--------------------------------------------------------------|


e|-16-16-16-16-16-14-11-----------------------------------------|
B|----------------------14-11-12-14-16-16-14-16--12-11-12-11-14-|
G|--------------------------------------------------------------|
D|--------------------------------------------------------------|
A|--------------------------------------------------------------|
E|--------------------------------------------------------------|

Repeat and add

e|--------------|
B|-12-11-14-----|
G|--------------|
D|--------------|
A|--------------|
E|--------------|

************************************

| /   slide up
| \   slide down
| h   hammer-on
| p   pull-off
| ~   vibrato
| +   harmonic
| x   Mute note
| b   Bend
| pb  Pre-bend
| br  Bend release
| pbr Pre-bend release
| brb Bend release bend

************************************
            
Submit corrections


        Atlas lessons Hard to play? Try these video lessons and learn fast Atlas lessons
        
↑ Back to top | Tablatures and chords for acoustic guitar and electric guitar, ukulele, drums are parodies/interpretations of the original songs. You may use it for private study, scholarship, research or language learning purposes only