» » »

Clutch - Subtle Hustle Tabs

Artists:  A B C D E F G H I J K L M N O P Q R S T U V W X Y Z # 

Subtle Hustle Tabs

(ver. 2) Click to play this song!
Clutch
 Rating:
4/5 (4 votes)

 Subtle Hustle lessons Tabs too difficult? Try these video lessons and learn fast
 
                INTRO / MAIN RIFF

e|------|---------------------|----------|
B|------|---------------------|----------|
G|-2----|---------------------|-------5--|
D|-2----|---------------------|-5--7--5--|
A|-0----|--0-5-b-r--3---0h3p0-|-5--7--3--|
E|------|-------------5-------|-3--5-----|

e|------|------------------------|-----------|
B|------|------------------------|-8--10--13-|
G|-2----|------------------------|-7--9---12-|
D|-2----|---12-b-r-10-7-7h-10p-7-|-5--7---10-|
A|-0----|-0-----------0----------|-----------|
E|------|------------------------|-----------|

VERSE
  ( repeat )    ( this part comes in half way in, play around with the Am pentatonic scale )
e|------|-|-----------------|-----------------|
B|------|-|-----------------|-----------------|
G|------|-|--7p-5---5-------|-------5---5-----|
D|------|-|-------7---7-5-7-|---------5---5-7-|
A|------|-|-----------------|-5h6h7-----------|
E|-3-5--|-|-----------------|-----------------|
 (WAH WAH)

BRIDGE/SOLO

e|----------------------|---------------------|------------------------|--------------------|
B|----------------------|---------------------|------------------------|--------------------|
G|--------------------5-|---------------------|--------------------5---|--------5---7---7b--|
D|--5h-7-7-7-7-7--5-7---|-5h-7-7-7-7-7-7--5-7-|-5h-7-7-7-7-7--5-7----7-|-5h-7-7-------------|
A|----------------------|---------------------|------------------------|--------------------|
E|----------------------|---------------------|------------------------|--------------------|


e|----------|---------------------------|----------|-----------------------|
B|----------|---------------------------|----------|-----------------------|
G|----------|-0h3p0h3p0h3p0h3p0h3p0h3p0-|----------|-3h5p3h5p3h5p3h5p3h5p3-|
D|-5-5-3-5--|---------------------------|-5-5-3-5--|-----------------------|
A|----------|---------------------------|----------|-----------------------|
E|----------|---------------------------|----------|-----------------------|

e|----------------------|---------------------|--------------------------------8-8-8/--|
B|----------------------|---------------------|-----10-10--10--10--10--10--10--8-8-8/--|
G|--------------------5-|---------------------|-----8--10--10b-10b-10b-10b-10b---------|
D|--5h-7-7-7-7-7--5-7---|-5h-7-7-7-7-7-7--5-7-|-/10------------------------------------|
A|----------------------|---------------------|----------------------------------------|
E|----------------------|---------------------|----------------------------------------|


BREAKDOWN

e|---------------|---------------|---------------|---------|---------|
B|---------------|---------------|---------------|---------|---------|
G|-2-2--5-----7--|-2-2--5-----7--|-2-2--5-----7--|---------|---------|
D|-2-2--5--5--7--|-2-2--5--5--7--|-2-2--5--5--7--|-5-5-5-5-|-5-5-5-5-| x2
A|-0-0--3--5--5--|-0-0--3--5--5--|-0-0--3--5--5--|-5-5-5-5-|-5-5-5-5-|
E|---------3-----|---------3-----|---------3-----|-3-3-3-3-|-3-3-3-3-|

e|----|--------|--------|---------|
B|----|--------|--------|---------|
G|----|--------|--------|---------|
D|-7--|-5---7--|-5---7--|-5---7h--|
A|-7--|-5---7--|-5---7--|-5---7h--|
E|-5--|-3---5--|-3---5--|-3---5h--|

END
e|-----------------------------|
B|-----------------------------|
G|-----------------------------|
D|-7-5-7-----7----7h-------5---|
A|-7-5-7-----7----7h-------5---|
E|-5-3-5-----5----5h-------3---|


               
Submit corrections


        Subtle Hustle lessons Hard to play? Try these video lessons and learn fast Subtle Hustle lessons
        
↑ Back to top | Tablatures and chords for acoustic guitar and electric guitar, ukulele, drums are parodies/interpretations of the original songs. You may use it for private study, scholarship, research or language learning purposes only