» » »

Clutch - Son Of Virginia Tabs

Artists:  A B C D E F G H I J K L M N O P Q R S T U V W X Y Z # 

Son Of Virginia Tabs

(ver. 1) Click to play this song!
Clutch
 Rating:
3.6/5 (20 votes)

 Son Of Virginia  lessons Tabs too difficult? Try these video lessons and learn fast
 
                 Intro (clean guitar)
e|---------------------|-----------------------|
B|---------------------|-----------------------|
G|---------------------|-----------------------|
D|---0-0---0-3b3.5-0---|---0-0---0-3b3.5-0---0-|
A|-------3-------------|-------3-----------3---|
D|-0-------------------|-0---------------------|


e|-------------|---------------|
B|-------------|---------------|
G|-5--5--5---5-|-4--4-4-4--4-5-|
D|-------------|---------------|
A|-3--3--3---3-|-2--2-2-2--2-3-|
D|-------------|---------------|


   Gtr II
e|-------5-----------------|-------------------------|-------5-------------------|-------------------------|
B|-----------6-----5---5-6-|-------------------------|-----------6-----5-6-8-6---|-------------------------|
G|-7-----------------7-----|---7---(7)---------------|-7-------------------------|-7-----------------------|
D|-------------------------|-7-----------------------|-------------------------7-|-------------------------|
A|-------------------------|-------------------------|---------------------------|-------------------------|
D|-------------------------|-------------------------|---------------------------|-------------------------|
 |
 | Gtr I
e|-------------------------|-------------------------|---------------------------|-------------------------|
B|-------------------------|-------------------------|---------------------------|-------------------------|
G|-------------------------|-------------------------|---------------------------|-------------------------|
D|---0-0---0-3b3.5---0-----|---0-0-----0-3b3.5-0---0-|---0-0---0-3b3.5---0-------|---0-0---0-3b3.5-0---0---|
A|-------3-----------------|--------3------------3---|-------3-------------------|-------3-----------3-----|
D|-0-----------------------|-0-----------------------|-0-------------------------|-0-----------------------|


 Verses
   Gtr II
e|---------------------|-----------------------|
B|-3-------------------|-3---------------------|
G|-2-------------------|-2---------------------|
D|-0-------------------|-0---------------------|
A|-0-------------------|-0---------------------|
D|-0-------------------|-0---------------------|
 |
 | Gtr I
e|---------------------|-----------------------|
B|---------------------|-----------------------|
G|---------------------|-----------------------|
D|---0-0---0-3b3.5-0---|---0-0---0-3b3.5-0---0-|
A|-------3-------------|-------3-----------3---|
D|-0-------------------|-0---------------------|


e|-------------|---------------|
B|-------------|---------------|
G|-5--5--5---5-|-4--4-4-4--4-5-|
D|-------------|---------------|
A|-3--3--3---3-|-2--2-2-2--2-3-|
D|-------------|---------------|


   Bridge (w/Distortion)
e|----------------|----------------|----------------|----------------|
B|----------------|----------------|----------------|----------------|
G|----------------|----------------|----------------|----------------|
D|----------------|----------------|----------------|----------------|
A|----5---3-3-3-5-|----5---3-3-3---|----5---3-3-3-5-|----5---3-2-----|
D|-0----0---------|-0----0-------3-|-0----0---------|-0----0-----3-2-|

 
   Gtr II
e|-----------------|-------------------|-------------------|----------------|
B|-----------------|-------------------|-------------------|----------------|
G|----9-7----------|-7--------7--9b11--|-9b11--7-----------|----------------|
D|-----------7-9-7-|----7-9-7----------|-------------------|----------------|
A|-----------------|-------------------|-------------------|----------------|
D|-----------------|-------------------|-------------------|----------------|
 |
 | Gtr I
e|-----------------|-------------------|-------------------|----------------|
B|-----------------|-------------------|-------------------|----------------|
G|-2--2---2--2-----|-4--4-----5--5-----|-------------------|----------------|
D|-2--2---2--2-----|-4--4-----5--5-----|-------------------|----------------|
A|-0--0---0--0-----|-2--2-----3--3-----|-------5---3-3-3-5-|----5---3-3-3---|
D|-----------------|-------------------|-0-------0---------|-0----0-------3-|

   Gtr II
e|----------------------------|----------------------|----------------|-----------------|
B|----------------------------|--------------11------|----------------|-----------------|
G|-10-9-7---9b10-7--------7---|-7-----7-7-7---9b10-9-|-7--------------|-----------------|
D|--------9-----------7-9---9-|---7-9----------------|----------------|-----------------|
A|----------------------------|----------------------|----------------|-----------------|
D|----------------------------|----------------------|----------------|-----------------|
 |
 | Gtr I
e|----------------------------|----------------------|----------------|-----------------|
B|----------------------------|----------------------|----------------|-----------------|
G|--2-------2------2--2-------|-4-----4---5---5------|----------------|-----------------|
D|--2-------2------2--2-------|-4-----4---5---5------|----------------|-----------------|
A|--0-------0------0--0-------|-2-----2---3---3------|----5---3-3-3-5-|----5---3-3-3----|
D|----------------------------|----------------------|-0----0---------|-0----0-------3--|

   Gtr II
e|-----------------|-------------------|--------------|------|
B|-----------------|-------------------|--------------|------|
G|----9-7----------|-7--------7--9b11--|-9b11--7------|------|
D|-----------7-9-7-|----7-9-7----------|--------------|------|
A|-----------------|-------------------|--------------|------|
D|-----------------|-------------------|--------------|------|
 |
 | Gtr I
e|-----------------|-------------------|--------------|------|
B|-----------------|-------------------|-3------------|------|
G|-2--2---2--2-----|-4--4-----5--5-----|-2------------|------|
D|-2--2---2--2-----|-4--4-----5--5-----|-0------------|------|
A|-0--0---0--0-----|-2--2-----3--3-----|-0------------|------|
D|-----------------|-------------------|-0------------|------|            
Submit corrections


        Son Of Virginia  lessons Hard to play? Try these video lessons and learn fast Son Of Virginia  lessons
        
↑ Back to top | Tablatures and chords for acoustic guitar and electric guitar, ukulele, drums are parodies/interpretations of the original songs. You may use it for private study, scholarship, research or language learning purposes only