» » »

Clutch - Son Of Virginia Bass

Artists:  A B C D E F G H I J K L M N O P Q R S T U V W X Y Z # 

Son Of Virginia Bass

(ver. 1) Click to play this song!
Clutch
 Rating:
3.1/5 (25 votes)

 Son Of Virginia  lessons Tabs too difficult? Try these video lessons and learn fast
 
                Intro (optional):

     e e                     e e      
G|---7-7-5-7-10-7*-------|---7-7-5-7-10-7-5-7-|
D|-----------------------|--------------------|
A|-5---------------------|-5------------------| x2
D|-----------------------|--------------------|

Pre Verse @ 0:13

G|-----------------|-----------------|
D|-----------------|-----------------|
A|-3---3---3-----3-|-2---2-2-2---2-3-|
D|-----------------|-----------------|

G|------------------|------------------|------------------|------------------|
D|------------------|------------------|------------------|----------3-------|
A|--------------3h5-|------------------|--------------3h5-|------------5-3-5-|
D|-0*---------------|-0*---------------|-0*---------------|-0*---------------|


Verse @ 0:32

G|------------------|------------------|------------------|------------------|
D|------------------|------------------|------------------|----------3-------|
A|--------------5h7-|------------------|--------------5h7-|------------5-3-5-| x2
D|-0*---------------|-0*---------------|-0*---------------|-0*---------------|

This is an alternative version of the verse. Obove is the original.
     e e                  e e
G|-------------------|-------------------|-------------------|--------------------|
D|-----------3-------|------------3------|-----------3-------|------------3-------|
A|---5-5-3-5---5-3h5-|----5-5-3-5---5~---|---5-5-3-5---5-3h5-|----5-5-3-5---5-3h5-| x2
D|-0-----------------|-0*----------------|-0-----------------|-0*-----------------|


Pre Chorus @ 0:58

G|-----------------|-----------------|------------------|------------------|
D|-----------------|-----------------|------------------|----------3-------|
A|-3---3---3-----3-|-2---2-2-2---2-3-|--------------3h5-|------------5-3-5-|
D|-----------------|-----------------|-0*---------------|-0*---------------|

G|-----------------|-----------------|
D|-----------------|-----------------|
A|-3---3---3-----3-|-2---2-2-2---2-3-|
D|-----------------|-----------------|


Repeat: 
         Verse      @ 1:29 x3
         Pre Chorus @ 2:07 x1


Chorus @ 2:26
           e e                                      e e
G|--------------------|-----------------|--------------------|-----------------|
D|--------------------|-----------------|--------------------|-------------3-2-|
A|-----5---3---3-3h5~-|-----5---3-2-----|-----5---3---3-3h5~-|-----5---3-2-----|
D|-0-----0---0--------|-0-----0-----3-2-|-0-----0---0--------|-0-----0---------|

           e e     e e                             e e
G|---------------------|-----------------|--------------------|-----------------|
D|---------------------|-----------------|--------------------|-------------3-2-|
A|-0---0-R-0-0-0---0-0-|-2---2-2---3-3-3-|-----5---3---3-3h5~-|-----5---3-2-----|
D|---------------------|-----------------|-0-----0---0--------|-0-----0---------|

           e e     e e                             e e
G|---------------------|-----------------|--------------------|-----------------|
D|---------------------|-----------------|--------------------|-------------3-2-|
A|-0---0-R-0-0-0---0-0-|-2---2-2---3-3-3-|-----5---3---3-3h5~-|-----5---3-2-----|
D|---------------------|-----------------|-0-----0---0--------|-0-----0---------|

           e e     e e                  
G|---------------------|-----------------|--------------------|
D|---------------------|-----------------|--------------------|
A|-0---0-R-0-0-0---0-0-|-2---2-2---3-3-3-|-5*-----------------|
D|---------------------|-----------------|-0*-----------------|


Repeat: 
        Verse      @ 3:16 x1
        pause      @ 3:30 or play the guitar intro
        Verse      @ 3:43 x1
        Pre Chorus @ 3:55 x1
       
Chorus @ 4:14
           e e                                     e e
G|--------------------|-----------------|--------------------|-----------------|
D|--------------------|-----------------|--------------------|-------------3-2-|
A|-----5---3---3-3h5~-|-----5---3-2-----|-----5---3---3-3h5~-|-----5---3-2-----|
D|-0-----0---0--------|-0-----0-----3-2-|-0-----0---0--------|-0-----0---------|

           e e     e e                             e e
G|---------------------|-----------------|--------------------|-----------------|
D|---------------------|-----------------|--------------------|-------------3-2-|
A|-0---0-R-0-0-0---0-0-|-2---2-2---3-3-3-|-----5---3---3-3h5~-|-----5---3-2-----|
D|---------------------|-----------------|-0-----0---0--------|-0-----0---------|

           e e     e e                             e e
G|---------------------|-----------------|--------------------|-----------------|
D|---------------------|-----------------|--------------------|-------------3-2-|
A|-0---0-R-0-0-0---0-0-|-2---2-2---3-3-3-|-----5---3---3-3h5~-|-----5---3-2-----|
D|---------------------|-----------------|-0-----0---0--------|-0-----0---------|

           e e     e e                             e e
G|---------------------|-----------------|--------------------|-----------------|
D|---------------------|-----------------|--------------------|-------------3-2-|
A|-0---0-R-0-0-0---0-0-|-2---2-2---3-3-3-|-----5---3---3-3h5~-|-----5---3-2-----|
D|---------------------|-----------------|-0-----0---0--------|-0-----0---------|

           e e     e e                             e e
G|---------------------|-----------------|--------------------|-----------------|
D|---------------------|-----------------|--------------------|-----------------|
A|-0---0-R-0-0-0---0-0-|-2---2-2---3-3-3-|-----5---3---3-3h5~-|-----5---3-2-----|
D|---------------------|-----------------|-0-----0---0--------|-0-----0-----3-2-|

G|--------------------|-----------------|--------------------|
D|--------------------|-----------------|--------------------|
A|-----5---3---3-3h5~-|-----------------|-5*-----------------|
D|-0-----0---0--------|-0-----0-----3-2-|-0*-----------------|
            
Submit corrections


        Son Of Virginia  lessons Hard to play? Try these video lessons and learn fast Son Of Virginia  lessons
        
↑ Back to top | Tablatures and chords for acoustic guitar and electric guitar, ukulele, drums are parodies/interpretations of the original songs. You may use it for private study, scholarship, research or language learning purposes only