» » »

Clutch - Electric Worry Bass

Artists:  A B C D E F G H I J K L M N O P Q R S T U V W X Y Z # 

Electric Worry Bass

(ver. 1) Click to play this song!
Clutch
 Rating:
4/5 (4 votes)

 Electric Worry lessons Tabs too difficult? Try these video lessons and learn fast
 
                -------------------------------------------------------------------------------
                             Electric Worry - Clutch
-------------------------------------------------------------------------------

Tuning: Standard

Verse
G|----------|
D|----------|
A|-3--3-2---|
E|--------1-|

G|--------------------|
D|--------------------|
A|-----------3--3-2---|
E|-3-3-3-3-3--------1-| x8

Chorus
G|------------|
D|------------|
A|-3--3-2-----|
E|--------1-3-| x4

Post Chorus 1
G|----------------------|
D|----------------------|
A|-----------3--3-2-1---|
E|-3-3-3-3-3----------1-| x4

G|----------------------|
D|-----------3--3-2-1---|
A|-3-3-3-3-3----------1-|
E|----------------------| x2

G|----------------------|
D|----------------------|
A|-----------3--3-2-1---|
E|-3-3-3-3-3----------1-| x2

Post Chorus 2
G|----------------------|
D|----------------------|
A|-----------3--3-2-1---|
E|-3-3-3-3-3----------1-| x4

G|----------------------|
D|-----------3--3-2-1---|
A|-3-3-3-3-3----------1-|
E|----------------------| x2

G|----------------------|
D|----------------------|
A|-----------3--3-2-1---|
E|-3-3-3-3-3----------1-| 

G|-----------|
D|-----------|
A|-----------|
E|-3-3-3-3-3-| 

G|-5-3-0-------------------5-3-0----------------|
D|-------5-3-0-------5-3-0-------5-3-0----------|
A|-------------5-3-0-------------------5-3-0----|
E|-------------------------------------------3*-|

Post Chorus 3
G|----------------------|
D|-----------3--3-2-1---|
A|-3-3-3-3-3----------1-|
E|----------------------| x2

G|----------------------|
D|----------------------|
A|-----------3--3-2-1---|
E|-3-3-3-3-3----------1-| x2

Drum solo

End
G|----|
D|----|
A|----|
E|-3*-|

Verse
Chorus
Post Chorus 1
Verse 
Chorus
Post Chorus 2
Verse 
Chorus
Post Chorus 3
End
            
Submit corrections


        Electric Worry lessons Hard to play? Try these video lessons and learn fast Electric Worry lessons
        
↑ Back to top | Tablatures and chords for acoustic guitar and electric guitar, ukulele, drums are parodies/interpretations of the original songs. You may use it for private study, scholarship, research or language learning purposes only