» » »

Clutch - Circus Maximus Tabs

Artists:  A B C D E F G H I J K L M N O P Q R S T U V W X Y Z # 

Circus Maximus Tabs

(ver. 2) Click to play this song!
Clutch
 Rating:
4/5 (4 votes)

 Circus Maximus lessons Tabs too difficult? Try these video lessons and learn fast
 
                -------------------------------------------------------------------------------
-------------------------------------------------------------------------------

Tuning: Standard

Intro/verse

e|---------------------------------------------------------------------------|
B|---------------------------------------------------------------------------|
G|------------------6------7-------------------------------------------------|
D|-------2------------5------6-----------2-----------------------------------|
A|-2p4-----4-2-4--4-----4------5---2p4-----4-2-4-----------------------------|
E|-----4-------------------------------4-------------------------------------|

Pre Chorus

e|------------------------------------------------------------------------------|
B|------------------------------------------------------------------------------|
G|------------------------------------------------------------------------------|
D|------------------------------------------------------------------------------|
A|-4-----4-4p2p0-2-4----4---4-4-4-4--2-2-2-2p0-2p0------------------------------|
E|-2--------------------2-------------------------------------------------------|

Chorus

e|---------------------------------------------------------------------------|
B|---------------------------------------------------------------------------|
G|---------------------------------------------------------------------------|
D|-4-----------------------2-----------4----------------------2--------------|
A|-2------4p2p0-2p0--4-4---0-------4---2------4p2p0-2p0--4-4--0--4-----------|
E|-------------------2-2-----------2---------------------2-2-----2-----------|

Bridge
Guitar 1

e|---------------------------------------------------------------------------|
B|---------------------------------------------------------------------------|
G|---------------------------------------------------------------------------|
D|-2-------------------------------------------------------------------------|
A|-0--4---4-4p2p0-2-4--4---4-4-4-4--2-2-2-2p0-2p0----------------------------|
E|----2----------------2-----------------------------------------------------|

Guitar 2

e|---------------------------------------------------------------------------|
B|---------------------------------------------------------------------------|
G|--------------14--16b18br16p14---------------------------------------------|
D|--------14h16-------------------16--14---13--------------------------------|
A|---------------------------------------------------------------------------|
E|---------------------------------------------------------------------------|


************************************

| /   slide up
| \   slide down
| h   hammer-on
| p   pull-off
| ~   vibrato
| +   harmonic
| x   Mute note
| b   Bend
| pb  Pre-bend
| br  Bend release
| pbr Pre-bend release
| brb Bend release bend

************************************
            
Submit corrections


        Circus Maximus lessons Hard to play? Try these video lessons and learn fast Circus Maximus lessons
        
↑ Back to top | Tablatures and chords for acoustic guitar and electric guitar, ukulele, drums are parodies/interpretations of the original songs. You may use it for private study, scholarship, research or language learning purposes only