» » »

Clutch - Abraham Lincoln Tabs

Artists:  A B C D E F G H I J K L M N O P Q R S T U V W X Y Z # 

Abraham Lincoln Tabs

(ver. 2) Click to play this song!
Clutch
 Rating:
4/5 (4 votes)

 Abraham Lincoln lessons Tabs too difficult? Try these video lessons and learn fast
 
                Tuning:Drop D

Guitar 1 Intro 
e|---------------------------------------------------------------------------|
B|---------------------------------------------------------------------------|
G|---------------------------------------------------------------------------|
D|---------------------------------------------------------------------------|
A|--12--12--12--10~~--12--12--12--10~~--12--12--12--10~~--12--12--12--10~~---|
D|--12--12--12--10~~--12--12--12--10~~--12--12--12--10~~--12--12--12--10~~---|

Guitar 2 
e|---------------------------------------------------------------------------|
B|---------------------------------------------------------------------------|
G|--/7--/10-------------------5----------------------------------------------|
D|------------7--5---------7-------5--3--------------------------------------|
A|---------------------------------------5~~---------------------------------|
D|---------------------------------------------------------------------------|

Guitar 1 verse
e|---------------------------------------------------------------------------|
B|---------------------------------------------------------------------------|
G|---------------------------------------------------------------------------|
D|---------------------------------------------------------------------------|
A|--0~~----------------------------------------------------------------------|
D|--0~~----------------------------------------------------------------------|

Guitar 2 verse
e|---------------------------------------------------------------------------|
B|-------------------------------13------------------------------------------|
G|--7--10--12brb--12--10--7~~--------12--12--12brb~~--12--10--7~~------------|
D|---------------------------------------------------------------------------|
A|---------------------------------------------------------------------------|
D|---------------------------------------------------------------------------|

Guitar 1
e|---------------------------------------------------------------------------|
B|---------------------------------------------------------------------------|
G|---------------------------------------------------------------------------|
D|---------------------------------------------------------------------------|
A|--0--12--10--12--0--12--10--12--0--12--10--12--10~~------------------------|
D|--0--12--10--12--0--12--10--12--0--12--10--12--10~~------------------------|

Guitar 2 "The Assassin...
e|---------------------------------------------------------------------------|
B|---------6-----------6-------6---------------------------------------------|
G|---5--7-----7~~---7-----7~~-----7~--5--5--7~~------------------------------|
D|---------------------------------------------------------------------------|
A|---------------------------------------------------------------------------|
D|---------------------------------------------------------------------------|

Guitar 1 Chorus 
e|---------------------------------------------------------------------------|
B|---------------------------------------------------------------------------|
G|-------12-10------------------10-7-----------------------------------------|
D|--------------12--10-10-12----------10-7--5-3------------------------------|
A|--0------------------------------------------------------------------------|
D|--0------------------------------------------------------------------------|

e|---------------------------------------------------------------------------|
B|---------------------------------------------------------------------------|
G|------12-10----------------------------------------------------------------|
D|-------------12--10-10-12----3--5--10--------------------------------------|
A|--0--------------------------3--5--10--------------------------------------|
D|--0--------------------------3--5--10--------------------------------------|

Guitar 1 Bridge (repeat a few times) 
e|----------------------------------------------------------------------------|
B|----------------------------------------------------------------------------|
G|-------------------99999999999999999----------------------------------------|
D|---7--10--12-------77777777777777777----------------------------------------|
A|---7--10--12-------77777777777777777----------------------------------------|
D|---7--10--12-------77777777777777777----------------------------------------|


Solo
e|-----------------------------------------------------------------------------|
B|---------13--------------13-------------13-----------------------------------|
G|----12b------12rb----12b-----12rb---12b----12b--12b--------------------------|
D|-----------------------------------------------------------------------------|
A|-----------------------------------------------------------------------------|
D|-----------------------------------------------------------------------------|            
Submit corrections


        Abraham Lincoln lessons Hard to play? Try these video lessons and learn fast Abraham Lincoln lessons
        
↑ Back to top | Tablatures and chords for acoustic guitar and electric guitar, ukulele, drums are parodies/interpretations of the original songs. You may use it for private study, scholarship, research or language learning purposes only