Home » C » Cigar »

Cigar - Laundry Basket Tabs

Artists:  A B C D E F G H I J K L M N O P Q R S T U V W X Y Z # 

Laundry Basket Tabs

(ver. 2) Click to play this song!
Cigar
This is Laundry Basket by melodic skate punk band CIGAR...have fun!

Intro/Verse: 
e|---------------------------------------------| 
B|---------------------------------------------| 
G|------------6--6-6-6---2--2-2-2---4--4-4-4---| 
D|-4--4-4-4---6--6-6-6---2--2-2-2---4--4-4-4---| 
A|-4--4-4-4---4--4-4-4---0--0-0-0---2--2-2-2---| 
E|-2--2-2-2------------------------------------| 

Chorus: 
e|---------------------------------------------------------------------------------|
B|---------------------------------------------------------------------------------| 
G|6--6-6-6--6--6-6-6---2--2-2-2--2--2-2-2---4--4-4-4--4--4-4-4---6--6-6-6--6--6-6-6|
D|6--6-6-6--6--6-6-6---2--2-2-2--2--2-2-2---4--4-4-4--4--4-4-4---6--6-6-6--6--6-6-6|
A|4--4-4-4--4--4-4-4---0--0-0-0--0--0-0-0---2--2-2-2--2--2-2-2---4--4-4-4--4--4-4-4|
E|---------------------------------------------------------------------------------|
            
Submit corrections

↑ Back to top | Tablatures and chords for acoustic guitar and electric guitar, ukulele, drums are parodies/interpretations of the original songs. You may use it for private study, scholarship, research or language learning purposes only