Home » C » Cigar »

Cigar - Laundry Basket Tabs

Artists:  A B C D E F G H I J K L M N O P Q R S T U V W X Y Z # 

Laundry Basket Tabs

(ver. 1) Click to play this song!
Cigar
Verse:

   F#   C#    A   B
E-----------------------------
B-----------------------------
G------6666-2222-4444---------
D-4444-6666-2222-4444---------
A-4444-4444-0000-2222---------
e-2222------------------------

Play that 4 times. On the 3rd time, give a short pause 
after the C# as there is a small drum solo.

Chorus:

     C#       A        B         C#
E----------------------------------------
B----------------------------------------
G-66666666-22222222-44444444-66666666----
D-66666666-22222222-44444444-66666666----
A-44444444-00000000-22222222-44444444----
e----------------------------------------

Play that once, then play the verse 4 times *now without the pause*


Bridge:

  F#       F#       F#        F#  C# A F#
E---------------------------------------------
B---------------------------------------------
G---------------------------------44-2--------
D-4--------4--------4--------4444-44-2-4------
A-4--------4--------4--------4444-22-0-4------
e-2--------2--------2--------2222------2------


Order:

Verse x4
Chorus x1
Verse x4
Bridge x1
Chorus x1
Verse x4

there ya go!!! thats the entire song.
I've added the lyrics, when you play the song, the last 2 times you play the verse,
sing verse2. 

Lyrics:

Verse1:

What the hell is this,
when you cant afford your own laundry basket?
Why was I the victim, 
You stole my wicker tool.

I came inside to check *pause*
On my clothes as they're drying,
I could've sworn I left in the apartment laundry room

Chorus:

Now it's gone, now it's clothing in a bundle
With socks and pants and underwear, 
Falling to the ground! 

Verse2:

*** the guy who took my *** and stole my laundry basket,
If I see you with with my basket in the laundry room,
I'll kick your ass, *** on your clothes,
And take back my ***in' basket, 
And then you'll be the victim, cause you stole my wicker tool
            
Submit corrections

↑ Back to top | Tablatures and chords for acoustic guitar and electric guitar, ukulele, drums are parodies/interpretations of the original songs. You may use it for private study, scholarship, research or language learning purposes only