» » »

Calum Scott Renew - Dancing On My Own Tabs

Artists:  A B C D E F G H I J K L M N O P Q R S T U V W X Y Z # 

Dancing On My Own Tabs

(ver. 3) Click to play this song!
Calum Scott Renew
 Rating:
4.3/5 (10 votes)

 Dancing On My Own  lessons Tabs too difficult? Try these video lessons and learn fast
 
                [Stave 1]
E|--------------------------------------------------|
B|--------------------------------------------------|
G|--------------------------------------------------|
D|-----6--6--5-----5--6--------6--6--5-----5--5--6--|
A|--4-----------6-----------4-----------6-----------|
E|--------------------------------------------------|

[Stave 2]
E|-----------------------------------------------|
B|--6--4--6--6--------6--4--6--6--------6--4-----|
G|--------------6-----------------6-----------6--|
D|-----------------------------------------------|
A|-----------------------------------------------|
E|-----------------------------------------------|

[Stave 3]
E|-----------------------------------------------------|
B|--6--4--6--6--------6--4--6--6--------6--4-----------|
G|--------------6-----------------6-----------6--5--6--|
D|-----------------------------------------------------|
A|-----------------------------------------------------|
E|-----------------------------------------------------|

[Stave 4]
E|--4-----4--4--------4-----4--4-----4h6--4-----------|
B|-----6--------6--------6--------6----------6--4-----|
G|-------------------------------------------------6--|
D|----------------------------------------------------|
A|----------------------------------------------------|
E|----------------------------------------------------|

[Stave 5]
E|--------------------------------------|
B|-----4/6-----6--6--4--4-----4h6p4-----|
G|--6--------------------------------6--|
D|--------------------------------------|
A|--------------------------------------|
E|--------------------------------------|
            
Submit corrections


        Dancing On My Own  lessons Hard to play? Try these video lessons and learn fast Dancing On My Own  lessons
        
↑ Back to top | Tablatures and chords for acoustic guitar and electric guitar, ukulele, drums are parodies/interpretations of the original songs. You may use it for private study, scholarship, research or language learning purposes only