» » »

Calum Scott Renew - Dancing On My Own Tabs

Artists:  A B C D E F G H I J K L M N O P Q R S T U V W X Y Z # 

Dancing On My Own Tabs

(ver. 1) Click to play this song!
Calum Scott Renew
 Rating:
4.3/5 (19 votes)

 Dancing On My Own  lessons Tabs too difficult? Try these video lessons and learn fast
 
                [Intro]
e|------------------|
B|------------------|
G|--------0---0---0-|
D|------2---2---2---|
A|-3----------------|
E|------------------|
X4

[Verse]
Somebody said you got a new friend.....
   C                 G             F
e|------------------------------------------------------------------|
B|------------------------------------------------------------------|
G|--------0---0---0-------0---0---1-2h----2---2---2---2---2---2---0-|
D|------2---2---2-------2---2---2---3---3---3---3---3---3---3---3---|
A|-3----------------2-----------------------------------------------|
E|------------------------------------------------------------------|
X4

[Refrain]
Yeah I know it's stupid..         I just got to see it for myself   
   Am              G                F
e|-------------------------------------------------------------------|
B|--------1-------0--------0-------1-------1-------1-------1-------1-|
G|------------2----------------0---------------2-------2-------2-----|
D|------2---2---2--------0---0---0-------3---3---3---3---3---3---3---|
A|-0----------------2----------------3-------------------------------|
E|-------------------------------------------------------------------|

[Chorus]
I'm in the corner, watching you kiss her (Oooh)....
    C              G                 F
e|--------------------------------------------------------------------|
B|--------1-------0--------0-------1--------1-------1-------1-------1-|
G|------------0----------------0----------------2-------2-------2-----|
D|------2---2---2--------0---0---0--------3---3---3---3---3---3---3---|
A|-3----------------2----------------3--------------------------------|
E|--------------------------------------------------------------------|
X2

I'm giving it my all, but I'm not the guy you're taking home (Uuuh).....
   Am                G               F
e|--------------------------------------------------------------------|
B|--------1-------0--------0-------1--------1-------1-------1-------1-|
G|------------2----------------0----------------2-------2-------2-----|
D|------2---2---2--------0---0---0--------3---3---3---3---3---3---3---|
A|-0----------------2----------------3--------------------------------|
E|--------------------------------------------------------------------|
X2

[Verse 2]
I'm just gonna dance all night.....
   C                 G               F
e|------------------------------------------------------------------|
B|------------------------------------------------------------------|
G|--------0---0---0-------0---0---1-2h----2---2---2---2---2---2---0-|
D|------2---2---2-------2---2---2---3---3---3---3---3---3---3---3---|
A|-3----------------2-----------------------------------------------|
E|------------------------------------------------------------------|
X2

[Refrain]
Stilettos and broken bottles.. I'm spinnin' around in circles
   Am              G                F
e|-------------------------------------------------------------------|
B|--------1-------0--------0-------1-------1-------1-------1-------1-|
G|------------2----------------0---------------2-------2-------2-----|
D|------2---2---2--------0---0---0-------3---3---3---3---3---3---3---|
A|-0----------------2----------------3-------------------------------|
E|-------------------------------------------------------------------|

[Chorus]
I'm in the corner, watching you kiss her (Oooh)
   C                 G             F
e|--------------------------------------------------------------------|
B|--------1-------0--------0-------1--------1-------1-------1-------1-|
G|------------0----------------0----------------2-------2-------2-----|
D|------2---2---2--------0---0---0--------3---3---3---3---3---3---3---|
A|-3----------------2----------------3--------------------------------|
E|--------------------------------------------------------------------|
X2
I'm giving it my all, but I'm not the guy you're taking home (Uuuh)
   Am              G                F
e|-------------------------------------------------------------------|
B|--------1-------0--------0-------1-------1-------1-------1-------1-|
G|------------2----------------0---------------2-------2-------2-----|
D|------2---2---2--------0---0---0-------3---3---3---3---3---3---3---|
A|-0----------------2----------------3-------------------------------|
E|-------------------------------------------------------------------|
X2

[Interlude]
e|-0-----3-0-----0-----3-0-----0-----3-0-------------1-----3-0-----0-----3-0--|
B|-1-----1-1-----1-----1-1-----1-----1-1-------------0-----1-1-----1-----1-1--|
G|-0-----0-0-----0-----0-0-----0-----0-0-------------1-----0-0-----0-----0-0--|
D|----------------------------------------------------------------------------|
A|----------------------------------------------------------------------------|
E|----------------------------------------------------------------------------|

e|-0-1----1-3h1-0-|
B|-1-1----1---1-1-|
G|-0-0----0---0-2-|
D|----------------|
A|----------------|
E|----------------|

[Bridge]
F           G               Am
So far away, but still so near
               G                F
The lights go on, the music dies
                G                 Am
But you don't see me, standing here
           G
I just came to say goodbye

[Chorus]
I'm in the corner, watching you kiss her (Oooh)

I'm giving it my all, but I'm not the guy you're taking home (Uuuh)...
   Am              G                F
e|-------------------------------------------------------------------|
B|--------1-------0--------0-------1-------1-------1-------1-------1-|
G|------------2----------------0---------------2-------2-------2-----|
D|------2---2---2--------0---0---0-------3---3---3---3---3---3---3---|
A|-0----------------2----------------3-------------------------------|
E|-------------------------------------------------------------------|
X2

I'm in the corner, watching you kiss her (Oooh)......
   C                 G             F
e|--------------------------------------------------------------------|
B|--------1-------0--------0-------1--------1-------1-------1-------1-|
G|------------0----------------0----------------2-------2-------2-----|
D|------2---2---2--------0---0---0--------3---3---3---3---3---3---3---|
A|-3----------------2----------------3--------------------------------|
E|--------------------------------------------------------------------|
X4

[Outro]
C           G               F
So far away, but still so near
                                Am
The lights go on, the music dies
                G                 F
But you don't see me, standing here            
Submit corrections


        Dancing On My Own  lessons Hard to play? Try these video lessons and learn fast Dancing On My Own  lessons
        
↑ Back to top | Tablatures and chords for acoustic guitar and electric guitar, ukulele, drums are parodies/interpretations of the original songs. You may use it for private study, scholarship, research or language learning purposes only