» » »

Calum Scott Renew - Dancing On My Own Tabs

Artists:  A B C D E F G H I J K L M N O P Q R S T U V W X Y Z # 

Dancing On My Own Tabs

(ver. 2) Click to play this song!
Calum Scott Renew
 Rating:
4.3/5 (21 vote)

 Dancing On My Own  lessons Tabs too difficult? Try these video lessons and learn fast
 
                  Intro                                                      Verse

E |----------------------------|----------------------------|----------------------------|
B |----------------------------|----------------------------|----------------------------|
G |-----0-----0-----0-----0----|-----0-----0-----0-----0----|-----0-----0--0h-2--2--2----|
D |----------------------------|----------------------------|----------------------------|
A |--3-------------------------|--3-------------------------|--3-------------------------|
E |----------------------------|----------------------------|----------------------------|

E |----------------------------|----------------------------|----------------------------|
B |----------------------------|----------------------------|----------------------------|
G |-----0--0-----0-----2-------|-----2-----0-----0-----0----|-----0-----0-----0-----0----|
D |--------------------0-------|-----3----------------------|----------------------------|
A |----------------------------|----------------------------|----------------------------|
E |--3--------3----------------|--1-----------1-------------|--1-----------1-------------|

E |----------------------------|----------------------------|----------------------------|
B |----------------------------|----------------------------|----------------------------|
G |--------0-----2--2-----0----|-----0--0-----0h-2-----2----|-----2-----0-----0-----0----|
D |----------------------------|-----------------------0----|-----3----------------------|
A |--3--------3----------------|----------------------------|----------------------------|
E |----------------------------|--3--------3----------------|--1-----------1-------------|

E |----------------------------|----------------------------|----------------------------|
B |----------------------------|--1-----------1--1-----0L---|--0-----0-----0h----1-------|
G |-----0-----0-----0-----0----|--------2-----2-------------|----------------------------|
D |----------------------------|--------------2-------------|----------------------------|
A |----------------------------|--0--------0----------------|----------------------------|
E |--1-----------1-------------|----------------------------|--3--------3-----------3----|
                                                             
                                                             Chorus

E |----------------------------|----------------------------|--------------0-----0--0----|
B |--------------1--1-----0L---|--0--1--------0h-1--1-------|--1--------------3----------|
G |--------2-------------------|----------------------------|--0-----0-------------------|
D |--------3-------------------|----------------------------|--2-------------------------|
A |----------------------------|----------------------------|--3--------3----------------|
E |--1--------1-----------1L---|--1-----1--------------1----|----------------------------|

E |--------------0-----0--0----|--------------0-------------|----------------------------|
B |-----1-----------3----------|-----1--------------3--1----|--------1-----1-----0-------|
G |-----0----------------------|-----2----------------------|--------2-----2-----2-------|
D |-----0----------------------|-----3----------------------|--------3-----3-----3-------|
A |----------------------------|----------------------------|----------------------------|
E |--3--------3----------------|--1--------1----------------|--1--------1-----1----------|

E |-----------0--0-----0--0----|--------------0-----0--0----|--------------0-------------|
B |--1-----1--------3----------|-----1-----------3----------|--------1-----------3--1----|
G |--0-----0-------------------|-----0----------------------|--------2-------------------|
D |--2-----2-------------------|-----0----------------------|--------3-------------------|
A |--3--------3----------------|----------------------------|----------------------------|
E |----------------------------|--3--------3----------------|--1--------1----------------|

E |----------------------------|-----------3--3h-0--3--3L---|--3h-0--------3h-0--3--5----|
B |--------1-----1-----0-------|--1-----1-----1-------------|----------------------------|
G |--------2-----2-----2-------|--2-----------2-------------|----------------------------|
D |--------3-----3-----3-------|--2-------------------------|----------------------------|
A |----------------------------|--0-----------0-------------|----------------------------|
E |--1--------1-----1----------|----------------------------|--3--------3----------------|

E |--------5--3L-3h-0----------|-----------------------0----|--------------0-----0-------|
B |-----------------------3----|--------1-----1h----3-------|--------1-------------------|
G |-----0----------------------|----------------------------|--------2-------------------|
D |----------------------------|----------------------------|--------2-------------------|
A |----------------------------|----------------------------|--0--------0----------------|
E |--1-----------1-------------|--1--------1----------------|----------------------------|


E |----------------------------|-----------0-----0-----0----|-----0-----0----------------|
B |--3-----3-----3h----1--1----|-----------1-----1-----1----|-----1-----1--------3-------|
G |--0-------------------------|----------------------------|--------------------2-------|
D |--0-------------------------|----------------------------|----------------------------|
A |----------------------------|----------------------------|----------------------------|
E |--3--------3----------------|--1-----------1-----1-------|--1-----1-------------------|

E |----------------------------|----------------------------|----------------------------|
B |--1-------------------------|----------------------------|----------------------------|
G |--0--0--------2--2--2--0----|--------------0h----2-------|-----2-----0-----0-----0----|
D |----------------------------|----------------------------|-----3----------------------|
A |--3--------3----------------|----------------------------|----------------------------|
E |----------------------------|--3--------3----------------|--1-----------1-------------|

E |----------------------------|----------------------------------------------------|
B |----------------------------|----------------------------------------------------|
G |-----0--------2--2-----0L---|--0-----0-----0-----------0-------------------------|
D |----------------------------|--------------------------------------2h----3h-2----|
A |--3--------3----------------|----------------------------------------------------|
E |----------------------------|--3-----------------3-------------------------------|

E |----------------------------|----------------------------|----------------------------|
B |----------------------------|----------------------------|--1-----------1--1--1--0L---|
G |-----2-----0-----0-----0----|-----0-----0-----0-----0----|--------2-----2-------------|
D |-----3----------------------|----------------------------|--------------2-------------|
A |----------------------------|----------------------------|--0--------0----------------|
E |--1-----------1-------------|--1-----------1-------------|----------------------------|

E |----------------------------|-----------0--0-----0--0----|--------------0-------------|
B |--0-----0-----0h----1-------|-----------------3----------|--------3-----------3-------|
G |----------------------------|--------2-------------------|----------------------------|
D |----------------------------|--------3-------------------|----------------------------|
A |----------------------------|----------------------------|----------------------------|
E |--3--------3-----------3----|--1-----------1-------------|--1--------1-----1-----1----|

E |-----------3--3h-0--3--3L---|--3h-0--------3h-0--3--5----|--------5--3L-3h-0----------|
B |--1-----1-----1-------------|----------------------------|-----------------------3----|
G |--2-----------2-------------|----------------------------|-----0----------------------|
D |--2-------------------------|----------------------------|----------------------------|
A |--0-----------0-------------|----------------------------|----------------------------|
E |----------------------------|--3--------3----------------|--1-----------1-------------|

E |-----------------------0----|--------------0-----0-------|----------------------------|
B |--------1-----1h----3-------|--------1-------------------|--3-----3-----3h----1--1----|
G |----------------------------|--------2-------------------|--0-------------------------|
D |----------------------------|--------2-------------------|--0-------------------------|
A |----------------------------|--0--------0----------------|----------------------------|
E |--1--------1----------------|----------------------------|--3--------3----------------|

E |----------------------------|--------------------0-------------------------------|
B |----------------------------|--------------1-----------------------2s-3----------|
G |-----2--0-----0-----0-------|--------------2-------------------------------------|
D |-----3-----3-----3-----3----|--------------3-------------------------------------|
A |----------------------------|----------------------------------------------------|
E |--1-------------------------|--1-------------------------------------------------|

   (You can use artificial harmonics for the melody)

E |--------------------3--0----|--------------3-----0-------|
B |--------------1-------------|--------1-------------------|
G |--------0-------------------|----------------------------|
D |----------------------------|----------------------------|
A |--3--------3----------------|----------------------------|
E |----------------------------|--3--------3----------------|

E |--0h-1------------------------------|--0----|----------------------------|
B |-----------------1-------------1----|--1----|--------------1-----1--0L---|
G |---------------------------2--------|--2----|-----------2----------------|
D |------------------------------------|--3----|----------------------------|
A |-----------3-----------3------------|-------|----------------------------|
E |-----1------------------------------|--1----|--1-------------------------|

E |----------------------------|----------------------------|----------------------------|
B |--0--------0--0--------1L---|--1--------1--1-----3--0L---|--0--------0--0-----1-------|
G |--------------------2-------|----------------------------|-----------------2----------|
D |----------------------------|----------------------------|----------------------------|
A |----------------------------|--0-------------------------|----------------------------|
E |--3-------------------------|----------------------------|--3-------------------------|

E |-----------------3-----0L---|--0-----------3-----0-------|----------------------------|
B |-----------1--1-------------|-----------1-----------1L---|--1-----------1--3-----0----|
G |----------------------------|----------------------------|----------------------------|
D |----------------------------|----------------------------|----------------------------|
A |----------------------------|----------------------------|--0-------------------------|
E |--1-------------------------|--3-------------------------|----------------------------|

E |----------------------------|--------------0-----0--0----|--------------0-----0--0----|
B |--0--------0--0-----1-------|-----------------3----------|-----1-----------3----------|
G |-----------------2----------|----------------------------|----------------------------|
D |----------------------------|----------------------------|----------------------------|
A |----------------------------|--3-------------------------|----------------------------|
E |--3-------------------------|----------------------------|--3-------------------------|

E |--------------0-----1--0L---|--0-------------------------|-----------3--3h-0--3--3L---|
B |-----1--------1-------------|--------1-----1-----0-------|--1-----1-----1-------------|
G |--------------2-------------|--------2-----2-----2-------|--2-----------2-------------|
D |----------------------------|--------3-----3-----3-------|--2-------------------------|
A |----------------------------|----------------------------|--0-----------0-------------|
E |--1-------------------------|--1--------1-----1----------|----------------------------|

E |--3h-0--------3h-0--3--5----|--------5--3L-3h-0----------|-----------------------0----|
B |----------------------------|-----------------------3----|--------1-----1h----3-------|
G |----------------------------|-----0----------------------|----------------------------|
D |----------------------------|----------------------------|----------------------------|
A |----------------------------|----------------------------|----------------------------|
E |--3--------3----------------|--1-----------1-------------|--1--------1----------------|

E |--------------0-----0-------|-----------------------0L---|--0--------0----------------|
B |--------1-------------------|--3-----3-----3s----5-------|--------1-----------3-------|
G |--------2-------------------|--0-------------------------|--------2-------------------|
D |--------2-------------------|--0-------------------------|--------3-------------------|
A |--0--------0----------------|----------------------------|----------------------------|
E |----------------------------|--3--------3----------------|--1-------------------------|

E |-----------0--0-----0--0----|--------------0-----0--0----|--------------0-------------|
B |--1--------------3----------|-----1-----------3----------|-----1--------------3--1----|
G |--0-----0-------------------|-----0----------------------|-----2----------------------|
D |--2-------------------------|-----0----------------------|-----3----------------------|
A |--3-----------3-------------|----------------------------|----------------------------|
E |----------------------------|--3--------3----------------|--1--------1----------------|

E |----------------------------|-----------0--0-----0--0----|--------------3--0--0--0----|
B |--------1-----1-----0-------|--1-----1--------3----------|-----1--------0-------------|
G |--------2-----2-----2-------|--0-----0-------------------|-----0--------0-------------|
D |--------3-----3-----3-------|--2-----2-------------------|-----0----------------------|
A |----------------------------|--3--------3----------------|----------------------------|
E |--1--------1-----1----------|----------------------------|--3--------3----------------|

E |--------------0-------------|--------------------0-------|-----------3--3h-0h-3--3L---|
B |-----1--------------3--1----|--------1-----1--3----------|--1-----1-----0-------------|
G |-----2----------------------|--------2-----2-------------|--0-----------0-------------|
D |-----3----------------------|--------3-----3-------------|--2-------------------------|
A |----------------------------|----------------------------|--3-------------------------|
E |--1--------1----------------|--1--------1--1-------------|----------------------------|

E |--3h-0--------3h-0--3--5----|--------5--3L-3h-0----------|--------------------3h-0----|
B |----------------------------|-----------------------3----|--------1-----1-------------|
G |----------------------------|-----0----------------------|--------2-------------------|
D |----------------------------|----------------------------|--------3-------------------|
A |----------------------------|----------------------------|----------------------------|
E |--3--------3----------------|--1-----------1-------------|--1--------1----------------|

E |--------------0-----0-------|--3-----3-----1h----0--0----|----------------------------|
B |--------1-------------------|--0-------------------------|--------1-----1-----0-------|
G |--------0-------------------|--0-------------------------|--------2-----2-----2-------|
D |--------2-------------------|----------------------------|--------3-----3-----3-------|
A |--3--------3-----3----------|----------------------------|----------------------------|
E |----------------------------|--3--------3----------------|--1--------1-----1----------|


E |----------------------------|----------------------------|----------------------------|
B |--------------1-----1--0L---|--0--------0--0--------1L---|--1--------1--1-----3--0L---|
G |-----------2----------------|--------------------2-------|----------------------------|
D |----------------------------|----------------------------|----------------------------|
A |----------------------------|----------------------------|--0-------------------------|
E |--1-------------------------|--3-------------------------|----------------------------|

E |----------------------------|-----------------3-----0----|-----------3-----0--1h-0----||
B |--0--------0--0-----1-------|-----------1--1-------------|--------1-------------------||
G |-----------------2----------|----------------------------|----------------------------||
D |----------------------------|----------------------------|----------------------------||
A |----------------------------|----------------------------|----------------------------||
E |--3-------------------------|--1-------------------------|--3-------------------------||

            
Submit corrections


        Dancing On My Own  lessons Hard to play? Try these video lessons and learn fast Dancing On My Own  lessons
        
↑ Back to top | Tablatures and chords for acoustic guitar and electric guitar, ukulele, drums are parodies/interpretations of the original songs. You may use it for private study, scholarship, research or language learning purposes only