Home » B » Buckcherry »

Buckcherry - Too Drunk Tabs

Artists:  A B C D E F G H I J K L M N O P Q R S T U V W X Y Z # 

Too Drunk Tabs

(ver. 2) Click to play this song!
Buckcherry
(Intro)
                             Too Drunk - Buckcherry



This is my first tab and I'm figuring out the rest of the song so I mite put the rest up soon.

Tuning: Standard

guitar 1                               3x
e|---------------------------------------|-----------------------------------|
B|---------------------------------------|-----------------------------------|
G|---------------------------------------|-----------------------------------|
D|-------15--17--17b--(17r)--p15---------|------15---------------------------|
A|--17---------------------------17--15--|--17------17--17--15---------------|
E|---------------------------------------|----------------------17-----------|

Guitar 2                               3x
e|---------------------------------------|-----------------------------------|
B|---------------------------------------|-----------------------------------|
G|---------------------------------------|-----------------------------------|
D|-------3---5---5b---(5r)---p3----------|-------3---------------------------|
A|---5----------------------------5---3--|---5-------5---5---3---0-----------|
E|---------------------------------------|-----------------------------------|


Key:
b: Bend
r: return to...
p: pull off
            
Submit corrections

↑ Back to top | Tablatures and chords for acoustic guitar and electric guitar, ukulele, drums are parodies/interpretations of the original songs. You may use it for private study, scholarship, research or language learning purposes only